» » »

Empty One Tabs (ver.1)

Artists:  A B C D E F G H I J K L M N O P Q R S T U V W X Y Z # 

Empty One Tabs (ver.1)

28 Days
Rating:
0/5 (0 votes)

Tabs too difficult? Try these video lessons and learn fast.
                                   28 Days – Empty One

Intro
e|---------------------------------------------------------------------------|
B|---------------------------------------------------------------------------|
G|---------------------------------------------------------------------------|
D|-2~----------------2-2----2~---------------7-5-4--4-4--5-------------------|
A|-2~----------------2-2----2~---------------7-5-4--4-4--5-------------------|
E|-0~----------------0-0----0~---------------5-3-2--2-2--3-------------------|
                     * *
Verse
e|---------------------------------------------------------------------------|
B|---------------------------------------------------------------------------|
G|--------------------------7-9-7--------------------------------------------|
D|-2--4-4--5-5----2-2--4-4---------2--4-4--5-5--7-5-4--4-4--5----------------|
A|-2--4-4--5-5----2-2--4-4--5-7-5--2--4-4--5-5--7-5-4--4-4--5----------------|
E|-0--2-2--3-3----0-0--2-2---------0--2-2--3-3--5-3-2--2-2--3----------------|

Chorus
e|---------------------------------------------------------------------------|
B|---------------------------------------------------------------------------|
G|-------------------------11-11-9-9-----------------------------------------|
D|-4-4-4-4-4-4-4-4--5-5-5----------------------------------------------------|
A|-4-4-4-4-4-4-4-4--5-5-5---9--9-7-7-----------------------------------------|
E|-2-2-2-2-2-2-2-2--3-3-3----------------------------------------------------|
   * * * * * * * *  * * *

Post Chorus
e|---------------------------------------------------------------------------|
B|---------------------------------------------------------------------------|
G|---------------------------------------------------------------------------|
D|--------------------------------7-5-4--4-4--5------------------------------|
A|-9~-----------------------------7-5-4--4-4--5------------------------------|
E|--------------------------------5-3-2--2-2--3------------------------------|

Bridge
e|---------------------------------------------------------------------------|
B|---------------------------------------------------------------------------|
G|--------------11-11-11-11----------------12-12-12-12-----------------------|
D|-2-2-2-2--2-----------------3-3-3-3--3-------------------------------------|
A|-2-2-2-2--2----9--9--9--9---3-3-3-3--3---10-10-10-10-----------------------|
E|-0-0-0-0--0-----------------1-1-1-1--1-------------------------------------|

Bridge (part 2)
e|---------------------------------------------------------------------------|
B|---------------------------------------------------------------------------|
G|--------------11-11-11-11----------------12-12-12-12-----------------------|
D|-2-2-2-2--2-----------------3-3-3-3--3-------------------------------------|
A|-2-2-2-2--2----9--9--9--9---3-3-3-3--3---10-10-10-10-----------------------|
E|-0-0-0-0--0-----------------1-1-1-1--1-------------------------------------|
   * * * *                    * * * *

Finish
e|---------------------------------------------------------------------------|
B|---------------------------------------------------------------------------|
G|---------------------------------------------------------------------------|
D|--------------------------------7-5-4--4-4--5--2~--------------------------|
A|-9~-----------------------------7-5-4--4-4--5--2~--------------------------|
E|--------------------------------5-3-2--2-2--3--0~--------------------------|
            
Tabs too difficult? Try these video lessons and learn fast.




comments powered by Disqus
↑ Back to top | Tablatures and chords are parodies/interpretations of the original songs. You may use it for private study, scholarship, research or language learning purposes only