» »

/0-9/311-tabs-28.html

»

Amber Bass tabs (ver.1)

Artists:  A B C D E F G H I J K L M N O P Q R S T U V W X Y Z # 

Amber Bass tabs (ver.1)

311
Rating:
3/5 (8 votes)
Tabs too difficult? Try these video lessons and learn fast.
                

Heres all of the parts of the song in order. Just listen to the song to get the timing 
Enjoy!

Riff 1:
(0:11-0:57)
G:----------------------------------------|
D:----------------------------------------|
A:3-3-3-3-3-3-----------------------------|   x8
E:------------5-5-5-------------3---------|
B:------------------5-5-5-5-5-5--5--------|

Riff 2:
(0:58-1:09)
G:-----------------------------------------|
D:-----------------------------------------|
A:---------------------------3-5-------3-5-|  x2
E:--------------------3-3-3-3-3---3-3-3-3--|
B:3-3-3-3-3-3-3-3-3-3----------------------|

Riff 1:
(1:10-1:43)
G:----------------------------------------|
D:----------------------------------------|
A:3-3-3-3-3-3-----------------------------|   x6
E:------------5-5-5-------------3---------|
B:------------------5-5-5-5-5-5--5--------|

Riff 2:
(1:43-1:55)
G:-----------------------------------------|
D:-----------------------------------------|
A:---------------------------3-5-------3-5-|  x2
E:--------------------3-3-3-3-3---3-3-3-3--|
B:3-3-3-3-3-3-3-3-3-3----------------------|

Riff 1:
(1:56-2:06)
G:----------------------------------------|
D:----------------------------------------|
A:3-3-3-3-3-3-----------------------------|   x2
E:------------5-5-5-------------3---------|
B:------------------5-5-5-5-5-5--5--------|

Short Pause (2:06-2:12)

Bridge Part 1:
(2:13-2:24)
G:----------------------------------------|
D:----------------------------------------|
A:----------------------------------------|  x2
E:5-5-5-5-5-5-0-5-------------------------|
B:----------------5-5-5-5-5-5-0-5---------|

Bridge Part 2:
(2:24-2:34)
G:----------------------------------------|
D:----------------------------------------|
A:----------------------------------------|
E:------------8---------------------------|  x2
B:6-6-6-6-6-6---6-5-5-5-5-5-5-0-5---------|

Fill:
(2:34-2:36)
G:----------------------------------------|
D:----------------------------------------|
A:----77777-------------------------------|  x1
E:3-//------------------------------------|
B:----------------------------------------|

Riff 1:
(2:36-2:47)
G:----------------------------------------|
D:----------------------------------------|
A:3-3-3-3-3-3-----------------------------|   x2
E:------------5-5-5-------------3---------|
B:------------------5-5-5-5-5-5--5--------|

Riff 2:
(2:48-2:58)
G:-----------------------------------------|
D:-----------------------------------------|
A:---------------------------3-5-------3-5-|  x2
E:--------------------3-3-3-3-3---3-3-3-3--|
B:3-3-3-3-3-3-3-3-3-3----------------------|

Riff 1:
(2:59-3:10)
G:----------------------------------------|
D:----------------------------------------|
A:3-3-3-3-3-3-----------------------------|   x2
E:------------5-5-5-------------3---------|
B:------------------5-5-5-5-5-5--5--------|
            
Tabs too difficult? Try these video lessons and learn fast.


comments powered by Disqus
↑ Back to top | Tablatures and chords are parodies/interpretations of the original songs. You may use it for private study, scholarship, research or language learning purposes only