» »

/0-9/311-tabs-28.html

»

Take My Money Bass tabs (ver.1)

Artists:  A B C D E F G H I J K L M N O P Q R S T U V W X Y Z # 

Take My Money Bass tabs (ver.1)

311
Rating:
0/5 (0 votes)

Tabs too difficult? Try these video lessons and learn fast.
                "Take My Money" by: 311


Music By: Nick Hexum, Tim Mahoney, Chad Sexton, Aaron Wills
Lyrics By: Nick Hexum, Doug Martinez

Tuning: E A D G

Intro & Verse
G|----------------------------------------------------------------|
D|----------------------------------------------------------------|    
A|-----------------------7-7-7-7------------------------7-7-7-7---|
E|--0--0--0--3--0--5--5------------0--0--0--3--0--5--5------------|

Chorus
G|------------------------------------------------------------|
D|------------------------------------------------------------|    
A|--2--2--0-0-----------0-----2------2--0-0----------0-----2--|
E|-------------0--2--0-----0-----0-0---------0-2--0-----0-----|

Ending
G|--------------------------------------|
D|--------------------------------------| 
A|--------------------------------------|
E|--2--0--5--0--7-----2--0--5--0--7--7--|
            
Tabs too difficult? Try these video lessons and learn fast.




comments powered by Disqus
↑ Back to top | Tablatures and chords are parodies/interpretations of the original songs. You may use it for private study, scholarship, research or language learning purposes only