» » »

By My Side Bass tabs (ver.2)

Artists:  A B C D E F G H I J K L M N O P Q R S T U V W X Y Z # 

By My Side Bass tabs (ver.2)

3 Doors Down
Rating:
5/5 (1 vote)

Tabs too difficult? Try these video lessons and learn fast.
                I think its aout 80% correct. If you play this part with any other guitar part, it isnt 
sound all that great. This tab was meant to be played with Barringers tab
Link to his tab:


Tip: Play with a pick.

Standard Tuning (Dont know if there is any other type)

B = full bend
b = half bend
h = hammer on
> = hold note for longer duration
. = palm mute
* = pinch harmonics (some amps need to be on full distortion)
p = pull off
~ = vibrato


---------------------------------------------------0--|
------1-0-0h1p0-----3-0-0h3p0-----1-0-0h1p0------3----|
----------------1-1-------------------------1-1-------|
--3-3-------------------------3-3---------------------|


---------------------------------------------------------|
------1-0-0h1p0-----3-0-0h3p0-----1-0-0h1p0--------------|
----------------1-1-------------------------1-1-1-1-1-1--|
--3-3-------------------------3-3------------------------|


------------------------------------------|
------------------------------------------|
---------6-6-6-6-6--------10-10-10-10-10--|	4x
--3-3-3------------6-6-6------------------|

		  (Palm Muted)
------------------------------------------|
------------------------------------------|
---------6-6-6-6-6--------10-10-10-10-10--|	4x
--3-3-3------------6-6-6------------------|


---------------------------------------------------0--|
------1-0-0h1p0-----3-0-0h3p0-----1-0-0h1p0------3----|
----------------1-1-------------------------1-1-------|
--3-3-------------------------3-3---------------------|


-----------------------------------------------------|
------1-0-0h1p0-----3-0-0h3p0-----1-0-0h1p0------3---|
----------------1-1-------------------------1-1------|
--3-3-------------------------3-3--------------------|


------------------------------------------------------|
------------------------------------------------------|
------------------------------------------------------|
--3-3-----------------------3-3-----------------------|


--------------------------------------------------------|
--------------------------------------------------------|
--------------------------------------------------------|
--3-3-----------------------3-3--------------------3-3--|


		  (Palm Muted)
------------------------------------------|
------------------------------------------|
---------6-6-6-6-6--------10-10-10-10-10--|	4x
--3-3-3------------6-6-6------------------|


---------------------------------------------------0--|
------1-0-0h1p0-----3-0-0h3p0-----1-0-0h1p0------3----|
----------------1-1-------------------------1-1-------|
--3-3-------------------------3-3---------------------|


-----------------------------------------------------|
------1-0-0h1p0-----3-0-0h3p0-----1-0-0h1p0------3---|
----------------1-1-------------------------1-1------|
--3-3-------------------------3-3--------------------|


		  (Palm Muted)
------------------------------------------|
------------------------------------------|
---------6-6-6-6-6--------10-10-10-10-10--|	7x
--3-3-3------------6-6-6------------------|


-----------------------------------------|
-----------------------------------------|
---------6-6-6-6-6----------8-8-8--------|
--3-3-3-------------6-6-6----------------|


------------------------------------------------------|
------------------------------------------------------|
------------------------------------------------------|
--3-3-----------------------3-3-----------------------|


--------------------------------------------------------|
--------------------------------------------------------|
--------------------------------------------------------|
--3-3-----------------------3-3--------------------3-3--|


------------------------------------------|
------------------------------------------|
---------6-6-6-6-6--------10-10-10-10-10--|	4x
--3-3-3------------6-6-6------------------|


		  (Palm Muted)
------------------------------------------|
------------------------------------------|
---------6-6-6-6-6--------10-10-10-10-10--|	4x
--3-3-3------------6-6-6------------------|
            
Tabs too difficult? Try these video lessons and learn fast.




comments powered by Disqus
↑ Back to top | Tablatures and chords are parodies/interpretations of the original songs. You may use it for private study, scholarship, research or language learning purposes only