>
 >
By My Side 5

By My Side 5 Guitar Tabs

3 Doors Down - By My Side 5 chords, tabs, tablatures, lyrics

Guitar lessons | Add/correct | Request | Top 50 tabs Artists:  A B C D E F G H I J K L M N O P Q R S T U V W X Y Z 0-9

By My Side 5 Guitar Tabs – 3 Doors Down

CD, Sheet music, Poster

Do you like By My Side 5? Share with your friends now
Bass TabsBass Tabs v2ChordsTabsTabs v2Tabs v3Tabs v4Tabs v5Tabs v6Tabs v7Ukulele
By my Side


Guitar I
Intro I   						   1.	   2.
E|--x-x-------------x-x-------------x-x-------------x-x--|------|-x-x-x-x|
B|--x-x-------------x-x-------------x-x-------------x-x--|------|-x-x-x-x|
G|--x-x-------------3-3-------------x-x-------------3-3--|------|-3-3-3-3|
D|--5-5-------------3-3-------------5-5-------------3-3--|3--5--|-3-3-3-3|
A|--5-5-------------1-1-------------5-5-------------1-1--|------|-1-1-1-1|
E|--3-3-------------x-x-------------3-3-------------x-x--|------|-x-x-x-x|
                                 x4
E|--x-x-x-x-x-x-x-x-x-x-x-x-x-x---|
B|--x-x-x-x-x-x-x-x-x-x-x-x-x-x---|
G|--x-x-8-8-8-8-8-x-x-1010101010--| 
D|--5-5-8-8-8-8-8-8-8-1010101010--|   
A|--5-5-6-6-6-6-6-8-8-8-8-8-8-8---| 
E|--3-3-x-x-x-x-x-6-6-x-x-x-x-x---|  

Guitar II 
Intro II						  1.	   2.
E|------------------------------------------------------|-------|-x-x-x-x|
B|------------------------------------------------------|-------|-x-x-x-x|
G|------------------------------------------------------|-------|-3-3-3-3|
D|----1--0-0h1p0-------3--0-0h3p0-------1--0-0h1p0------|3--5---|-3-3-3-3|
A|-----------------1-1-------------------------------1-1|-------|-1-1-1-1|
E|--3-3-----------------------------3-3-----------------|-------|-x-x-x-x|

                                 x4 
E|--x-x-x-x-x-x-x-x-x-x-x-x-x-x---|
B|--x-x-x-x-x-x-x-x-x-x-x-x-x-x---|
G|--x-x-8-8-8-8-8-x-x-1010101010--| 
D|--5-5-8-8-8-8-8-8-8-1010101010--|
A|--5-5-6-6-6-6-6-8-8-8-8-8-8-8---|
E|--3-3-x-x-x-x-x-6-6-x-x-x-x-x---|

Guitar I	
Riff I (palm mutes)              x4
E|--x-x-x-x-x-x-x-x-x-x-x-x-x-x---|
B|--x-x-x-x-x-x-x-x-x-x-x-x-x-x---|
G|--x-x-8-8-8-8-8-x-x-1010101010--| 
D|--5-5-8-8-8-8-8-8-8-1010101010--|   
A|--5-5-6-6-6-6-6-8-8-8-8-8-8-8---| 
E|--3-3-x-x-x-x-x-6-6-x-x-x-x-x---|  

Guitar II	
Riff I (palm mutes)              x4
E|--x-x-x-x-x-x-x-x-x-x-x-x-x-x---|
B|--x-x-x-x-x-x-x-x-x-x-x-x-x-x---|
G|--x-x-8-8-8-8-8-x-x-1010101010--| 
D|--5-5-8-8-8-8-8-8-8-1010101010--|   
A|--5-5-6-6-6-6-6-8-8-8-8-8-8-8---| 
E|--3-3-x-x-x-x-x-6-6-x-x-x-x-x---|  

Guitar I
Riff II                                                          1.      2.
E|--x-x-------------x-x-------------x-x-------------x-x--|------|-x-x-x-x|
B|--x-x-------------x-x-------------x-x-------------x-x--|------|-x-x-x-x|
G|--x-x-------------3-3-------------x-x-------------3-3--|------|-3-3-3-3|
D|--5-5-------------3-3-------------5-5-------------3-3--|3--5--|-3-3-3-3|
A|--5-5-------------1-1-------------5-5-------------1-1--|------|-1-1-1-1|
E|--3-3-------------x-x-------------3-3-------------x-x--|------|-x-x-x-x|



Guitar II
Riff III                                                         1.      2.
E|------------------------------------------------------|-------|-x-x-x-x|
B|------------------------------------------------------|-------|-x-x-x-x|
G|------------------------------------------------------|-------|-3-3-3-3|
D|------1--0-0h1p0------3--0-0h3p0-------1--0-0h1p0-----|3--5---|-3-3-3-3|
A|-----------------1-1-------------------------------1-1|-------|-1-1-1-1|
E|--3-3-----------------------------3-3-----------------|-------|-x-x-x-x|

Guitar I
Riff IV                                                          x2
E|--x--x-------------------------x--x-------------------------x--x--|
B|--x--x-------------------------x--x-------------------------x--x--|
G|--x--x-------------------------x--x-------------------------x--x--|
D|--5--5-------------------------5--5-------------------------5--5--|
A|--5--5-------------------------5--5-------------------------5--5--|
E|--3--3-------------------------3--3-------------------------3--3--|
                                                                     
Guitar II
Riff V                                                       x2
E|------------------------------------------------------------------|
B|------------------------------------------------------------------|
G|------------------------------------------------------------------|
D|------------0-3-1-0----------------------0-3-1-0------------------|
A|--------1-3---------3-1-3---5--------1-3---------3-1-3------------|
E|--3--3-------------------------3--3----------------------3--3--3--|

Guitar I	
Riff I   (palm mutes)            x4
E|--x-x-x-x-x-x-x-x-x-x-x-x-x-x---|
B|--x-x-x-x-x-x-x-x-x-x-x-x-x-x---|
G|--x-x-8-8-8-8-8-x-x-1010101010--| 
D|--5-5-8-8-8-8-8-8-8-1010101010--|   
A|--5-5-6-6-6-6-6-8-8-8-8-8-8-8---| 
E|--3-3-x-x-x-x-x-6-6-x-x-x-x-x---|  

Guitar II	
Riff I    (palm mutes)           x4
E|--x-x-x-x-x-x-x-x-x-x-x-x-x-x---|
B|--x-x-x-x-x-x-x-x-x-x-x-x-x-x---|
G|--x-x-8-8-8-8-8-x-x-1010101010--| 
D|--5-5-8-8-8-8-8-8-8-1010101010--|   
A|--5-5-6-6-6-6-6-8-8-8-8-8-8-8---| 
E|--3-3-x-x-x-x-x-6-6-x-x-x-x-x---|  

Guitar I
Riff II                                                          1.      2.      
E|--x-x-------------x-x-------------x-x-------------x-x--|------|-x-x-x-x|
B|--x-x-------------x-x-------------x-x-------------x-x--|------|-x-x-x-x|
G|--x-x-------------3-3-------------x-x-------------3-3--|------|-3-3-3-3|
D|--5-5-------------3-3-------------5-5-------------3-3--|3--5--|-3-3-3-3|
A|--5-5-------------1-1-------------5-5-------------1-1--|------|-1-1-1-1|
E|--3-3-------------x-x-------------3-3-------------x-x--|------|-x-x-x-x|

Guitar II
Riff III                                                         1.      2.                 
E|------------------------------------------------------|-------|-x-x-x-x|
B|------------------------------------------------------|-------|-x-x-x-x|
G|------------------------------------------------------|-------|-3-3-3-3|
D|------1--0-0h1p0------3--0-0h3p0-------1--0-0h1p0-----|3--5---|-3-3-3-3|
A|-----------------1-1-------------------------------1-1|-------|-1-1-1-1|
E|--3-3-----------------------------3-3-----------------|-------|-x-x-x-x|

Guitar I
Solo I
E|------------------------------------------------------------------------|
B|------------------------------------------------------------------------|
G|----------------------------------------------------10b----10b----------|
D|--10b----------r8------------------8--10--8--10--8----------------------|
A|-------------------10-------8--10---------------------------------------|
E|------------------------------------------------------------------------|

E|------------------------------------------------------------------------|
B|------------------------------------------------------------------------|
G|------------------------------------------------------------------------|
D|-----------------------------------5-------8-----8-9b-r-8-9p8-----------|
A|------------------8--10-10-----5h8----8h10----10--------------10-8h10---|
E|--10--10p-8h--10--------------------------------------------------------|

E|------------------------------------------------------------------------|
B|------5b--7b--7b-7b-7b-------5b--7b--7b-7b-7b-r-------------------------|
G|--6b---------------------6b----------------------12p10---12p10---12p10--|
D|------------------------------------------------------12------12------12|
A|------------------------------------------------------------------------|
E|------------------------------------------------------------------------|

E|------------------------------------------------------------------------|
B|------------------------------------------------------------------------|
G|12p10---12p10--12p10--12p10---12p10----12p10----------------------------|
D|-----12------12-----12-----12------12-------12-10--10p8-------8h10-8----|
A|--------------------------------------------------------10-8h10-------10|
E|------------------------------------------------------------------------|

E|----------------------|
B|----------------------|
G|----------------------|
D|----------------------|
A|--8--10---------------|
E|---------10--6--8-----|

Guitar II
Riff VI                         x8
E --x-x-x-x-x-x-x-x-x-x-x-x-x-x---| (For the first 
B --x-x-x-x-x-x-x-x-x-x-x-x-x-x---| 4 times play
G --x-x-3-3-3-3-3-x-x-1010101010--| it with palm 
D --5-5-3-3-3-3-3-3-3-1010101010--| mutes)
A --5-5-1-1-1-1-1-3-3-8-8-8-8-8---|
E --3-3-x-x-x-x-x-1-1-x-x-x-x-x---|

Guitar I
Riff IV                                                         x2
E|--x--x-------------------------x--x-------------------------x--x--|
B|--x--x-------------------------x--x-------------------------x--x--|
G|--x--x-------------------------x--x-------------------------x--x--|
D|--5--5-------------------------5--5-------------------------5--5--|
A|--5--5-------------------------5--5-------------------------5--5--|
E|--3--3-------------------------3--3-------------------------3--3--|
                                                                     
Guitar II
Riff V                                                         x2
E|------------------------------------------------------------------|
B|------------------------------------------------------------------|
G|------------------------------------------------------------------|
D|------------0-3-1-0----------------------0-3-1-0------------------|
A|--------1-3---------3-1-3---5--------1-3---------3-1-3------------|
E|--3--3-------------------------3--3----------------------3--3--3--|


Guitar I
Riff I                           x4
E|--x-x-x-x-x-x-x-x-x-x-x-x-x-x---|  
B|--x-x-x-x-x-x-x-x-x-x-x-x-x-x---| 
G|--x-x-8-8-8-8-8-x-x-1010101010--|  
D|--5-5-8-8-8-8-8-8-8-1010101010--| 
A|--5-5-6-6-6-6-6-8-8-8-8-8-8-8---| 
E|--3-3-x-x-x-x-x-6-6-x-x-x-x-x---|  

Guitar II
Riff VII                                                           1.      2.
E|--x-x--------------x-x--------------x-x--------------x-x--|----|-x-x-x-x|
B|--x-x--------------x-x--------------x-x--------------x-x--|----|-x-x-x-x|
G|--x-x--------------3-3--------------x-x--------------3-3--|----|-3-3-3-3|
D|--5-5-1--0-0h1p0---3-3-3--0-0h3p0---5-5-1--0-0h1p0---3-3--|3--5|-3-3-3-3|
A|--5-5--------------1-1--------------5-5--------------1-1--|----|-1-1-1-1|
E|--3-3--------------x-x--------------3-3--------------x-x--|----|-x-x-x-x|

Guitar I
Riff I                           x4
E|--x-x-x-x-x-x-x-x-x-x-x-x-x-x---| 
B|--x-x-x-x-x-x-x-x-x-x-x-x-x-x---| 
G|--x-x-8-8-8-8-8-x-x-1010101010--| 
D|--5-5-8-8-8-8-8-8-8-1010101010--| 
A|--5-5-6-6-6-6-6-8-8-8-8-8-8-8---| 
E|--3-3-x-x-x-x-x-6-6-x-x-x-x-x---|  

Guitar II
Solo II
E -----------------------------------------------------------------------|
B ----------------------------------------10b-r-8------------------------|
G -----------------------------------------------------------------------|
D -----------------------------------------------------------------------|
A -----------------------------------------------------------------------|
E -----------------------------------------------------------------------|

E -----11h13p11h13p11h13p11h13p11h13p11h13p12h14p10h12p10-8b------------|
B ----------------------------------------------------------------------|
G ----------------------------------------------------------------------|
D ----------------------------------------------------------------------|
A ----------------------------------------------------------------------|
E --3-3----------------x-x----------------3-3----------------x-x-x-x-x--|

Guitar I
Riff II                                                          1.      2.      
E|--x-x-------------x-x-------------x-x-------------x-x--|------|-x-x-x-x|
B|--x-x-------------x-x-------------x-x-------------x-x--|------|-x-x-x-x|
G|--x-x-------------3-3-------------x-x-------------3-3--|------|-3-3-3-3|
D|--5-5-------------3-3-------------5-5-------------3-3--|3--5--|-3-3-3-3|
A|--5-5-------------1-1-------------5-5-------------1-1--|------|-1-1-1-1|
E|--3-3-------------x-x-------------3-3-------------x-x--|------|-x-x-x-x|
Guitar II 
Riff III						 	    1.	    2.
E|------------------------------------------------------|-------|-x-x-x-x|
B|------------------------------------------------------|-------|-x-x-x-x|
G|------------------------------------------------------|-------|-3-3-3-3|
D|------1--0-0h1p0------3--0-0h3p0-------1--0-0h1p0-----|3--5---|-3-3-3-3|
A|-----------------1-1-------------------------------1-1|-------|-1-1-1-1|
E|--3-3-----------------------------3-3-----------------|-------|-x-x-x-x|



Guitar I
Riff I                           x4
E|--x-x-x-x-x-x-x-x-x-x-x-x-x-x---|  
B|--x-x-x-x-x-x-x-x-x-x-x-x-x-x---| 
G|--x-x-8-8-8-8-8-x-x-1010101010--|
D|--5-5-8-8-8-8-8-8-8-1010101010--| 
A|--5-5-6-6-6-6-6-8-8-8-8-8-8-8---| 
E|--3-3-x-x-x-x-x-6-6-x-x-x-x-x---|  

Guitar II
Solo III
E -----------------------------------------------------------------------|
B -----------------------------------------------------------------------|
G -----------------------------------------------------------------------|
D -----------------------------------------------------------------------|
A -----------------------------------------------------------------------|
E -8/10-10-10-10-10-10-10-10-10-10-10--8/10-10-10-10-10-10-10-10-10-10---|

E ----------------------------------------------------------------------|
B ----------------------------------------------------------------------|
G ----------------------------------------------------------------------|
D ----------------------------------------------------------------------|
A ----------------------------------------------------------------------|
E -8/10-10-10-10-10-10-10-10-10-10-10--8/10-10-10-10-10-10-10------8----|

Order for Guitar II
1. Intro I
2. Riff I
3. Riff II
4. Riff IV
5. Riff I
6. Riff II 
7. Solo I
8. Riff IV
9. Riff I
10. Riff I
11. Riff II
12. Riff I

Order for Guitar II
1. Intro II
2. Riff I
3. Riff III
4. Riff V
5. Riff I
6. Riff III
7. Riff VI
8. Riff V
9. Riff VII
10. Solo II
11. Riff III
12. Solo III

 





Comments


Popular 3 Doors Down tabs & chords
Kryptonite 5 Bass Tabs
Loser Bass Tabs
Away From The Sun Tabs
Be Like That Intro 1 Tabs
Landing In London 3 Tabs
She Dont Want The World Intro Tabs
So I Need You Tabs
When I'm Gone 15 Tabs
Believer Ukulele
Runaway Ukulele


Song lyrics



↑ Back to top | Tablatures and chords are parodies/interpretations of the original songs. You may use it for private study, scholarship, research or language learning purposes only
© 2014 AZChords.com Contact us | Privacy policy | DMCA | Add/correct tabs | Request tabs | Top 50 tabs