» » »

Its Not My Time Bass tabs (ver.2)

Artists:  A B C D E F G H I J K L M N O P Q R S T U V W X Y Z # 

Its Not My Time Bass tabs (ver.2)

3 Doors Down
Rating:
0/5 (0 votes)
Tabs too difficult? Try these video lessons and learn fast.
                Tuning: Standard (EADG)


Intro:
G|---------------------------|
D|---------------------------| x2
A|----------------3333-------|
E|-5-3-1-1--1--1--------3333-|

G|---------|
D|---------|
A|---------|
E|-5-3-1-1-|

Verse:
G|-----------|
D|-----------| x2
A|-----------|
E|-1----5----|

G|---------------------------|
D|---------------------------| x2
A|---------------------------|
E|-111111111111-555555555555-|

Chorus:
G|---------------------|
D|---------------------| x2
A|-----------3333------|
E|-5-3-1-1-1------3333-|

-->Verse

-->Chorus x4

Bridge:
G|---------------------------|
D|---------------------------| x4
A|---------------------------|
E|-111111111111-555555555555-|

-->Chorus x4

Outro:
G|---------------------------|
D|---------------------------| x2
A|---------------------------|
E|-111111111111-555555555555-|
(Let final note ring)
            
Tabs too difficult? Try these video lessons and learn fast.


comments powered by Disqus
↑ Back to top | Tablatures and chords are parodies/interpretations of the original songs. You may use it for private study, scholarship, research or language learning purposes only