» » »

Maria I Like It Loud Tabs (ver.1)

Artists:  A B C D E F G H I J K L M N O P Q R S T U V W X Y Z # 

Maria I Like It Loud Tabs (ver.1)

Abandon All Ships
Rating:
0/5 (0 votes)

Tabs too difficult? Try these video lessons and learn fast.
                         Maria(I like it loud)
Tuning: Drop D
Album:Geeving(B-side)
Difficulty: Novice

Keyboard intro/lead

e---11----11-9--------------11----11----11-----------------|
b-9----9--------12-12-12------12----12----12--9-9-9--------|
g----------------------------------------------------------|
d----------------------------------------------------------|
a----------------------------------------------------------|
D----------------------------------------------------------|x3

e|-------------------------------------------------------------------|
b|-------------------------------------------------------------------|
g|-------------------------------------------------------------------|
d|-00000000000000-88888888888888888888-33333333333333-00000000000000-| 
a|-00000000000000-88888888888888888888-33333333333333-00000000000000-|
D|-00000000000000-88888888888888888888-33333333333333-00000000000000-|x4

Maria, Maria, I Like It Loud...
e|-----------------------------------------|
b|-----------------------------------------|
g|-----------------------------------------| 
d|-----------------------------------------|
a|-0-0--0000-8-8--8--3-3--3333-2-2--22-3*b-|
D|-0-0--0000-8-8--8--3-3--3333-2-2--22-----|x2
   . .  .... . .  .  . .  .... . .  ..

Loud!!!!
e|---------------------------------------------|
b|---------------------------------------------|
g|---------------------------------------------|
d|-------------------------------------------0-|
a|-0-0--0000-00-0-00-0--0-0--0000-00-0-00-0--0-|
D|-0-0--0000-00-0-00-0--0-0--0000-00-0-00-0--0-|(Let Ring)
  
Maria Believe Me I Like It Loud...
(Vocal part. Be sure to sing with your friends!!)

END
plz cmmt and rate!
            
Tabs too difficult? Try these video lessons and learn fast.




comments powered by Disqus
↑ Back to top | Tablatures and chords are parodies/interpretations of the original songs. You may use it for private study, scholarship, research or language learning purposes only