» » »

Asgardsrei Tabs (ver.1)

Artists:  A B C D E F G H I J K L M N O P Q R S T U V W X Y Z # 

Asgardsrei Tabs (ver.1)

Absurd
Rating:
0/5 (0 votes)

Tabs too difficult? Try these video lessons and learn fast.
                Leadgitarre:

E|----------------------------------------------------------|
H|----------------------------------------------------------|
G|----------------------------------------------------------|
D|:12-12-8-8-7:---------------------------------------------|
A|----------------------------------------------------------|
E|----------------------------------------------------------|

Rhytmusgitarre:

E|----------------------------------------------------------|
H|----------------------------------------------------------|
G|----------------------------------------------------------|
D|-xxxxxxxxx------------------------------------------------|
A|:777777777:-----------------------------------------------|
E|:555555555:-----------------------------------------------|

Solo:

E|----------------------------------------------------------|
H|----------------------------------------------------------|
G|----------------------------------------------------------|
D|9--979-11-12-11-9-----12-11-9-12-11-9-7-99----9<<<<4------|
A|----------------------------------------------------------|
E|----------------------------------------------------------|

E|----------------------------------------------------------|
H|----------------------------------------------------------|
G|----------------------------------------------------------|
D|4-2-4-6-7-6-4-2-4----2-4-6-7-6--67676767676767676---7-6-4-|
A|----------------------------------------------------------|
E|----------------------------------------------------------|

E|----------------------------------------------------------|
H|----------------------------------------------------------|
G|----------------------------------------------------------|
D|12-11-11-12-11-11-9-12-11-9-7-6-4-2-4-6-7-6-4-------------|
A|----------------------------------------------------------|
E|----------------------------------------------------------|


E|----------------------------------------------------------|
H|----------------------------------------------------------|
G|----------------------------------------------------------|
D|----------------------------------------------------------|
A|7---7-10---10-13---15-17----------------------------------|
E|5---5-8-----8-11---13-15----------------------------------|
            
Tabs too difficult? Try these video lessons and learn fast.




comments powered by Disqus
↑ Back to top | Tablatures and chords are parodies/interpretations of the original songs. You may use it for private study, scholarship, research or language learning purposes only