>
 >
Losing More Than You Ever Had

Losing More Than You Ever Had Bass Tabs

Accept - Losing More Than You Ever Had chords, tabs, tablatures, lyrics

Guitar lessons | Add/correct | Request | Top 50 tabs Artists:  A B C D E F G H I J K L M N O P Q R S T U V W X Y Z 0-9

Losing More Than You Ever Had Bass Tabs – Accept

CD, Sheet music, Poster

Do you like Losing More Than You Ever Had? Share with your friends now
Bass Tabs
                        Losing More Than You Ever Had                           


                                                                          Accept
Bass



     Q       W                   W                   W                 
G||-------|-------------------|-------------------|-------------------|
D||-------|-------------------|-------------------|-------------------|
A||-------|-------------------|-------------------|-------------------|
E||-------|-------------------|-------------------|-------------------|


  W                   E  E  S S Q    E  S S E     E  E  S S Q    E  S S E   
-------------------|---------------------------|---------------------------|
-------------------|---------------------------|---------------------------|
-------------------|--5--3--5--------3--5------|--5--3--5--------3--5------|
-------------------|---------------------------|---------------------------|


  E  E  S S Q    E  S S E     E  E  S S Q    E  E  E   
---------------------------|--------------------------|
---------------------------|-----------------5--3-----|
--5--3--5--------3--5------|--5--3--5--------------3--|
---------------------------|--------------------------|


  Play stoccato                                       
  S.            T S. T S. T S. T S. T S. T S. T S. T  
-----------------------------------------------------|
-----------------------------------------------------|
--5---------------5----5----5----5----5----5----5----|
-----------------------------------------------------|


  S. T S. T S. T S. T S. T S. T S. T S. T  
------------------------------------------|
------------------------------------------|
--5----5----5----5----5----5----5----5----|
------------------------------------------|


  S. T S. T S. T S. T S. T S. T S. T S. T    S. T S. T S. T S. T S. T E  E  E   
------------------------------------------|------------------------------------|
------------------------------------------|---------------------------5--3-----|
--5----5----5----5----5----5----5----5----|--5----5----5----5----5----------3--|
------------------------------------------|------------------------------------|


  S. T S. T S. T S. T S. T S. T S. T S. T  
------------------------------------------|
------------------------------------------|
--5----5----5----5----5----5----5----5----|
------------------------------------------|


  S. T S. T S. T S. T S. T S. T S. T S. T  
------------------------------------------|
------------------------------------------|
--5----5----5----5----5----5----5----5----|
------------------------------------------|


  S. T S. T S. T S. T S. T S. T S. T S. T    S. T S. T S. T S. T S. T E  E  E   
------------------------------------------|------------------------------------|
------------------------------------------|---------------------------5--3-----|
--5----5----5----5----5----5----5----5----|--5----5----5----5----5----------3--|
------------------------------------------|------------------------------------|


  S. T S. T S. T S. T S. T S. T S. T S. T  
------------------------------------------|
------------------------------------------|
--5----5----5----5----5----5----5----5----|
------------------------------------------|


  S. T S. T S. T S. T S. T S. T S. T S. T  
------------------------------------------|
------------------------------------------|
--5----5----5----5----5----5----5----5----|
------------------------------------------|


  S. T S. T S. T S. T S. T S. T S. T S. T    S. T S. T S. T S. T S. T E  E  E   
------------------------------------------|------------------------------------|
------------------------------------------|---------------------------5--3-----|
--5----5----5----5----5----5----5----5----|--5----5----5----5----5----------3--|
------------------------------------------|------------------------------------|


  S. T S. T S. T S. T S. T S. T S. T S. T  
------------------------------------------|
------------------------------------------|
--5----5----5----5----5----5----5----5----|
------------------------------------------|


  S. T S. T S. T S. T S. T S. T S. T S. T  
------------------------------------------|
------------------------------------------|
--5----5----5----5----5----5----5----5----|
------------------------------------------|


  S. T S. T S. T S. T S. T S. T S. T S. T    S. T S. T S. T S. T S. T E  E  E   
------------------------------------------|------------------------------------|
------------------------------------------|---------------------------5--3-----|
--5----5----5----5----5----5----5----5----|--5----5----5----5----5----------3--|
------------------------------------------|------------------------------------|


  S. T S. T S. T S. T S. T S. T S. T S. T  
------------------------------------------|
------------------------------------------|
--5----5----5----5----5----5----5----5----|
------------------------------------------|


  S. T S. T S. T S. T S. T S. T S. T S. T  
------------------------------------------|
------------------------------------------|
--5----5----5----5----5----5----5----5----|
------------------------------------------|


  S. T S. T S. T S. T S. T S. T S. T S. T  
------------------------------------------|
------------------------------------------|
--5----5----5----5----5----5----5----5----|
------------------------------------------|


  S. T S. T S. T S. T S. T S. T S. T E     H        E  E  E  E   
----------------------------------------|-----------------------|
----------------------------------------|-----------------------|
--5----5----5----5----5----5----3----1--|--L--------1--0--1--3--|
----------------------------------------|-----------------------|


  E  E  E  E  E  E  E  E     H        E  E  E  E     W                 
--------------------------|-----------------------|-------------------|
--------------------------|-----------------------|-------------------|
--L-----------------0--1--|--L--------L--0--1--3--|--L----------------|
-----0--1-----1--3--------|-----------------------|-------------------|


  S. T S. T S. T S. T S. T S. T S. T S. T  
------------------------------------------|
------------------------------------------|
--5----5----5----5----5----5----5----3----|
------------------------------------------|


  S. T S. T S. T S. T S. T S. T S. T S. T  
------------------------------------------|
------------------------------------------|
--3----3----3----3----3----3----3----3----|
------------------------------------------|


  S. T S. T S. T S. T S. T S. T S. T S. T  
------------------------------------------|
------------------------------------------|
--5----5----5----5----5----5----5----5----|
------------------------------------------|


  S. T S. T S. T S. T S. T S. T S. T S. T  
------------------------------------------|
------------------------------------------|
--5----5----5----5----5----5----5----5----|
------------------------------------------|


  S. T S. T S. T S. T S. T S. T S. T S. T  
------------------------------------------|
------------------------------------------|
--5----5----5----5----5----5----5----3----|
------------------------------------------|


  S. T S. T S. T S. T S. T S. T S. T S. T  
------------------------------------------|
------------------------------------------|
--3----3----3----3----3----3----3----1----|
------------------------------------------|


  S. T S. T S. T S. T S. T S. T S. T S. T    Q.       E   Q     Q      
------------------------------------------|---------------------------|
------------------------------------------|---------------------------|
--1----1----1----1----1----1----1----1----|--1S------12--12----10S----|
------------------------------------------|---------------------------|


  E  E  E  E  E  E  E  E     E  E  E  E  E  E  E  E   
--------------------------|--------------------------|
--------------------------|--------------------------|
--5--3--5-----5--0--5--3--|--L-----3-----3--0--3--5--|
--------------------------|--------------------------|


  E  E  E  E  E  E  E  E     E  E  E  E  E  E  E  E   
--------------------------|--------------------------|
--------------------------|--------------------------|
-----1--1-----1--0--3--5--|-----3--3-----3-----3-----|
--------------------------|--------------------------|


  E  E  E  E  E  E  E  E     E  E  E  E  E  E  E  E   
--------------------------|--------------------------|
--------------------------|--------------------------|
--5--3--5-----5--0--5--3--|--L-----3-----3--0--3--5--|
--------------------------|--------------------------|


  E  E  E  E  E  E  E  E     E  E  E  E  E  E  E  E   
--------------------------|--------------------------|
--------------------------|--------------------------|
-----1--1-----1--0--3--5--|-----3--3-----3--------0--|
--------------------------|-----------------1--3-----|


  S. T S. T S. T S. T S. T S. T S. T S. T  
------------------------------------------|
------------------------------------------|
--3----3----3----3----3----3----3----3----|
------------------------------------------|


  S. T S. T S. T S. T S. T S. T S. T S. T    S. T S. T S. T S. T S. T E  E  E   
------------------------------------------|------------------------------------|
------------------------------------------|------------------------------------|
--3----3----3----3----3----3----3----3----|--5----5----5----5----5----5--3--1--|
------------------------------------------|------------------------------------|


  S. T S. T S. T S. T S. T S. T S. T S. T  
------------------------------------------|
------------------------------------------|
--1----1----1----1----1----1----1----1----|
------------------------------------------|


  S. T S. T S. T S. T S. T S. T S. T S. T  
------------------------------------------|
------------------------------------------|
--3----3----3----3----3----3----3----3----|
------------------------------------------|


  S. T S. T S. T S. T S. T S. T S. T S. T    E  E  E  E  E  E  E  E   
------------------------------------------|--------------------------|
------------------------------------------|--------------------------|
--3----3----3----3----3----3----3----3----|--1--1--1--1--1--1--1-----|
------------------------------------------|-----------------------3--|


  Q    Q    E  E  E  E     S. T S. T S. T S. T S. T S. T S. T S. T  
------------------------|------------------------------------------|
------------------------|------------------------------------------|
------------------8--7--|--5----5----5----5----5----5----5----5----|
--L----5----6--8--------|------------------------------------------|


  S. T S. T S. T S. T S. T S. T S. T S. T  
------------------------------------------|
------------------------------------------|
--5----5----5----5----5----5----5----5----|
------------------------------------------|


  S. T S. T S. T S. T S. T S. T S. T S. T    S. T S. T S. T S. T S. T E  E  E   
------------------------------------------|------------------------------------|
------------------------------------------|------------------------------------|
--5----5----5----5----5----5----5----5----|--5----5----5----5----5----------3--|
------------------------------------------|---------------------------1--0-----|


  S. T S. T S. T S. T S. T S. T S. T S. T  
------------------------------------------|
------------------------------------------|
--5----5----5----5----5----5----5----5----|
------------------------------------------|


  S. T S. T S. T S. T S. T S. T S. T S. T  
------------------------------------------|
------------------------------------------|
--5----5----5----5----5----5----5----5----|
------------------------------------------|


  S. T S. T S. T S. T S. T S. T S. T S. T    S. T S. T S. T S. T S. T E  E  E   
------------------------------------------|------------------------------------|
------------------------------------------|---------------------------5--3-----|
--5----5----5----5----5----5----5----5----|--5----5----5----5----5----------3--|
------------------------------------------|------------------------------------|


  S. T S. T S. T S. T S. T S. T S. T S. T  
------------------------------------------|
------------------------------------------|
--5----5----5----5----5----5----5----5----|
------------------------------------------|


  S. T S. T S. T S. T S. T S. T S. T S. T  
------------------------------------------|
------------------------------------------|
--5----5----5----5----5----5----5----5----|
------------------------------------------|


  S. T S. T S. T S. T S. T S. T S. T S. T  
------------------------------------------|
------------------------------------------|
--5----5----5----5----5----5----5----5----|
------------------------------------------|


  S. T S. T S. T S. T S. T S. T S. T E     H        E  E  E  E   
----------------------------------------|-----------------------|
----------------------------------------|-----------------------|
--5----5----5----5----5----5----3----1--|--L--------1--0--1--3--|
----------------------------------------|-----------------------|


  E  E  E  E  E  E  E  E     H        E  E  E  E     Q    H.            
--------------------------|-----------------------|--------------------|
--------------------------|-----------------------|--------------------|
--L-----------------0--1--|--L--------L--0--1--3--|--L----3------------|
-----0--1-----1--3--------|-----------------------|--------------------|


  S. T S. T S. T S. T S. T S. T S. T S. T  
------------------------------------------|
------------------------------------------|
--5----5----5----5----5----5----5----3----|
------------------------------------------|


  S. T S. T S. T S. T S. T S. T S. T S. T  
------------------------------------------|
------------------------------------------|
--3----3----3----3----3----3----3----3----|
------------------------------------------|


  S. T S. T S. T S. T S. T S. T S. T S. T  
------------------------------------------|
------------------------------------------|
--5----5----5----5----5----5----5----5----|
------------------------------------------|


  S. T S. T S. T S. T S. T S. T S. T S. T  
------------------------------------------|
------------------------------------------|
--5----5----5----5----5----5----5----5----|
------------------------------------------|


  S. T S. T S. T S. T S. T S. T S. T S. T  
------------------------------------------|
------------------------------------------|
--5----5----5----5----5----5----5----3----|
------------------------------------------|


  S. T S. T S. T S. T S. T S. T S. T S. T  
------------------------------------------|
------------------------------------------|
--3----3----3----3----3----3----3----1----|
------------------------------------------|


  S. T S. T S. T S. T S. T S. T S. T S. T    Q.       E   Q     Q      
------------------------------------------|---------------------------|
------------------------------------------|---------------------------|
--1----1----1----1----1----1----1----1----|--1S------12--12----10S----|
------------------------------------------|---------------------------|


  E  E  E  E  E  E  E  E     E  E  E  E  E  E  E  E   
--------------------------|--------------------------|
--------------------------|--------------------------|
--5--3--5-----5--0--5--3--|--L-----3-----3--0--3--5--|
--------------------------|--------------------------|


  E  E  E  E  E  E  E  E     E  E  E  E  E  E  E  E   
--------------------------|--------------------------|
--------------------------|--------------------------|
-----1--1-----1--0--3--5--|-----3--3-----3-----3-----|
--------------------------|--------------------------|


  E  E  E  E  E  E  E  E     E  E  E  E  E  E  E  E   
--------------------------|--------------------------|
--------------------------|--------------------------|
--5--3--5-----5--0--5--3--|--L-----3-----3--0--3--5--|
--------------------------|--------------------------|


  E  E  E  E  E  E  E  E     E  E  E  E  E  E  E  E   
--------------------------|--------------------------|
--------------------------|--------------------------|
-----1--1-----1--0--3--5--|-----3--3-----3--------0--|
--------------------------|-----------------1--3-----|


  S. T S. T S. T S. T S. T S. T S. T S. T  
------------------------------------------|
------------------------------------------|
--3----3----3----3----3----3----3----3----|
------------------------------------------|


  S. T S. T S. T S. T S. T S. T S. T S. T    S. T S. T S. T S. T S. T E  E  E   
------------------------------------------|------------------------------------|
------------------------------------------|------------------------------------|
--3----3----3----3----3----3----3----3----|--5----5----5----5----5----0-----0--|
------------------------------------------|------------------------------3-----|


  S. T S. T S. T S. T S. T S. T S. T S. T  
------------------------------------------|
------------------------------------------|
--1----1----1----1----1----1----1----3----|
------------------------------------------|


  S. T S. T S. T S. T S. T S. T S. T S. T  
------------------------------------------|
------------------------------------------|
--3----3----3----3----3----3----3----3----|
------------------------------------------|


  S. T S. T S. T S. T S. T S. T S. T S. T    E  E  E  E  E  E  E  E   
------------------------------------------|--------------------------|
------------------------------------------|--------------------------|
--3----3----3----3----3----3----3----3----|--1--1--1--1--1--1--1-----|
------------------------------------------|-----------------------3--|


  Q    Q    E  E  E  E     E  E  H.              W                 
------------------------|---------------------|-------------------|
------------------------|---------------------|-------------------|
------------------8--7--|--7--7---------------|-------------------|
--L----5----6--8--------|--0--0---------------|-------------------|


  E  E  Q.     E  E  E     W                   E  E  Q.     E  E  E   
------------------------|-------------------|------------------------|
------------------------|-------------------|------------------------|
--3--3------------5-----|-------------------|--3--3------------5-----|
---------------3-----0--|-------------------|---------------3-----0--|


  W                   E  E  Q.     E  E  E     W                 
-------------------|------------------------|-------------------|
-------------------|------------------------|-------------------|
-------------------|--3--3------------5-----|-------------------|
-------------------|---------------3-----0--|-------------------|


  E  E  Q.     E  E  E     W                   E  E  E  E  E  E  E  E   
------------------------|-------------------|--------------------------|
------------------------|-------------------|--------------------------|
--3--3------------5-----|-------------------|--3--3--------------5-----|
---------------3-----0--|-------------------|--------0--0--0--3-----0--|


  E  E  E  E  E  E  E  E       E  E  E  E  E  E  E  E   
--------------------------||---------------------------|
--------------------------||*--------------------------|
--------------------------||*--3--3--------------5-----|
--0--0--0--0--0--0--0--0--||---------0--0--0--3-----0--|


  E  E  E  E  E  E  E  E   6x  E  E  E  E  E  E  E  E   
---------------------------||--------------------------|
--------------------------*||--------------------------|
--------------------------*||--3--3--------------5-----|
--0--0--0--0--0--0--0--0---||--------0--0--0--3-----0--|


  E  E  E  E  E  E  E  E     E  E  Q.     E  E  E     W                 
--------------------------|------------------------|-------------------|
--------------------------|------------------------|-------------------|
--------------------------|--3--3------------5-----|-------------------|
--0--0--0--0--0--0--0--0--|---------------3-----0--|-------------------|


  E  E  H        E  E     Q    Q    E  E  E  E     E  E  E  E  E  E  E  E   
-----------------------|------------------------|--------------------------|
-----------------------|------------------------|--------------------------|
--3--3-----------------|------------------8--7--|--5--3--5-----5--0--5--3--|
--------------------3--|--L----5----6--8--------|--------------------------|


  E  E  E  E  E  E  E  E     E  E  E  E  E  E  E  E   
--------------------------|--------------------------|
--------------------------|--------------------------|
--L-----3-----3--0--3--5--|-----1--1-----1--0--3--5--|
--------------------------|--------------------------|


  E  E  E  E  E  E  E  E     E  E  E  E  E  E  E  E   
--------------------------|--------------------------|
--------------------------|--------------------------|
-----3--3-----3-----3-----|--5--3--5-----5--0--5--3--|
--------------------------|--------------------------|


  E  E  E  E  E  E  E  E     E  E  E  E  E  E  E  E   
--------------------------|--------------------------|
--------------------------|--------------------------|
--L-----3-----3--0--3--5--|-----1--1-----1--0--3--5--|
--------------------------|--------------------------|


  E  E  E  E  E  E  E  E     S. T S. T S. T S. T S. T S. T S. T S. T  
--------------------------|------------------------------------------|
--------------------------|------------------------------------------|
-----3--3-----3--------0--|--3----3----3----3----3----3----3----3----|
-----------------1--3-----|------------------------------------------|


  S. T S. T S. T S. T S. T S. T S. T S. T  
------------------------------------------|
------------------------------------------|
--3----3----3----3----3----3----3----3----|
------------------------------------------|


  S. T S. T S. T S. T S. T S. T S. T S. T  
------------------------------------------|
------------------------------------------|
--5----5----5----5----5----5----5----5----|
------------------------------------------|


  S. T S. T S. T S. T S. T S. T S. T S. T  
------------------------------------------|
------------------------------------------|
--1----1----1----1----1----1----1----1----|
------------------------------------------|


  S. T S. T S. T S. T S. T S. T S. T S. T  
------------------------------------------|
------------------------------------------|
--3----3----3----3----3----3----3----3----|
------------------------------------------|


  S. T S. T S. T S. T S. T S. T S. T S. T    E  E  E  E  E  E  E  E   
------------------------------------------|--------------------------|
------------------------------------------|-----------------------3--|
--3----3----3----3----3----3----3----3----|--1--1--1--1--1--1--1-----|
------------------------------------------|--------------------------|


  E  E  E  E  E  E   Q        S. T S. T S. T S. T S. T S. T S. T S. T  
--3--3--3--3--3--3---------|------------------------------------------|
---------------------------|------------------------------------------|
---------------------------|--5----5----5----5----5----5----5----3----|
--------------------10s----|------------------------------------------|


  S. T S. T S. T S. T S. T S. T S. T S. T  
------------------------------------------|
------------------------------------------|
--3----3----3----3----3----3----3----3----|
------------------------------------------|


  S. T S. T S. T S. T S. T S. T S. T S. T  
------------------------------------------|
------------------------------------------|
--1----1----1----1----1----1----1----1----|
------------------------------------------|


  S. T S. T S. T S. T S. T S. T S. T S. T  
------------------------------------------|
------------------------------------------|
--1----1----1----1----1----1----1----3----|
------------------------------------------|


  S. T S. T S. T S. T S. T S. T S. T S. T  
------------------------------------------|
------------------------------------------|
--5----5----5----5----5----5----5----3----|
------------------------------------------|


  S. T S. T S. T S. T S. T S. T S. T S. T  
------------------------------------------|
------------------------------------------|
--3----3----3----3----3----3----3----3----|
------------------------------------------|


  S. T S. T S. T S. T S. T S. T S. T S. T  
------------------------------------------|
------------------------------------------|
--1----1----1----1----1----1----1----1----|
------------------------------------------|


  S. T S. T S. T S. T S. T S. T S. T S. T  
------------------------------------------|
------------------------------------------|
--1----1----1----1----1----1----1----3----|
------------------------------------------|


  S. T S. T S. T S. T S. T S. T S. T S. T  
------------------------------------------|
------------------------------------------|
--5----5----5----5----5----5----5----3----|
------------------------------------------|


  S. T S. T S. T S. T S. T S. T S. T S. T  
------------------------------------------|
------------------------------------------|
--3----3----3----3----3----3----3----3----|
------------------------------------------|


  S. T S. T S. T S. T S. T S. T S. T S. T  
------------------------------------------|
------------------------------------------|
--1----1----1----1----1----1----1----1----|
------------------------------------------|


  S. T S. T S. T S. T S. T S. T S. T S. T  
------------------------------------------|
------------------------------------------|
--1----1----1----1----1----1----1----3----|
------------------------------------------|


  S. T S. T S. T S. T S. T S. T S. T S. T  
------------------------------------------|
------------------------------------------|
--5----5----5----5----5----5----5----3----|
------------------------------------------|


  S. T S. T S. T S. T S. T S. T S. T S. T  
------------------------------------------|
------------------------------------------|
--3----3----3----3----3----3----3----3----|
------------------------------------------|


  S. T S. T S. T S. T S. T S. T S. T S. T  
------------------------------------------|
------------------------------------------|
--1----1----1----1----1----1----1----1----|
------------------------------------------|


  S. T S. T S. T S. T S. T S. T S. T S. T  
------------------------------------------|
------------------------------------------|
--1----1----1----1----1----1----1----3----|
------------------------------------------|


  Fade Out                                       
  S.       T S. T S. T S. T S. T S. T S. T S. T  
------------------------------------------------|
------------------------------------------------|
--5----------5----5----5----5----5----5----3----|
------------------------------------------------|


  S. T S. T S. T S. T S. T S. T S. T S. T  
------------------------------------------|
------------------------------------------|
--3----3----3----3----3----3----3----3----|
------------------------------------------|


  S. T S. T S. T S. T S. T S. T S. T S. T  
------------------------------------------|
------------------------------------------|
--1----1----1----1----1----1----1----1----|
------------------------------------------|


  S. T S. T S. T S. T S. T S. T S. T S. T   
------------------------------------------||
------------------------------------------||
--1----1----1----1----1----1----1----1----||
------------------------------------------||




Duration Legend
---------------
W - whole
H - half
Q - quarter
E - 8th
S - 16th
T - 32nd
X - 64th
. - note dotted
|-n-|  - n-tuplets


Tablature Legend
----------------
L - tied note
x - dead note
g - grace note
(n) - ghost note
> - accentuded note
NH - natural harmonic
AH - artificial harmonic
TH - tapped harmonic
SH - semi harmonic
PH - pitch harmonic
h - hammer on
p - pull off
b - bend
br - bendRelease
pb - preBend
pbr - preBendRelease
brb - bendReleaseBend
\n/ - tremolo bar dip
\n - tremolo bar dive
-/n - tremolo bar Release up
/n\ - tremolo bar inverted dip
/n - tremolo bar return
-\n - tremolo bar Release down
S - shift slide
s - legato slide
/ -  slide into from below or out of upwards
\ -  slide into from above or out of downwards
~ - vibrato
W - wide vibrato
tr - trill
TP - tremolo picking
T - tapping
S - slap
P - pop
< - fade in
^ - brush up
v - brush down





Comments


Popular Accept tabs & chords
All Or Nothing Bass Tabs
Another Second To Be Bass Tabs
China Lady Bass Tabs
Hellhammer Bass Tabs
Save Us Bass Tabs
Amamos La Vida Tabs
Heaven Is Hell Tabs
I Dont Wanna Be Like You Intro Tabs
I'm A Rebel Tabs
Monsterman Tabs


Song lyrics



↑ Back to top | Tablatures and chords are parodies/interpretations of the original songs. You may use it for private study, scholarship, research or language learning purposes only
© 2014 AZChords.com Contact us | Privacy policy | DMCA | Add/correct tabs | Request tabs | Top 50 tabs