» » »

War In Your Bedroom Tabs (ver.1)

Artists:  A B C D E F G H I J K L M N O P Q R S T U V W X Y Z # 

War In Your Bedroom Tabs (ver.1)

A Change Of Pace
Rating:
5/5 (2 votes)

Tabs too difficult? Try these video lessons and learn fast.
                -------------------------------------------------------------------------------
                             SONG NAME - Band Name
-------------------------------------------------------------------------------

Tuning:Drop D

ok so this has been one of my favorite songs by them since the album came out, but there
been a tab for it, so i was up last night totally wired on caffeine with nothing to do,
i thought 'why dont i figure out a bunch of songs' so i figured out this one, Wanna Be 
Rock n Roll, and White Lines n Lipstick, those tabs are coming soon!!! =]

Intro
gtr 1
e|--------------------------------|
B|--------------------------------|
G|-444444-4444444-4444444-4444444-|
D|--------------------------------|
A|-222222-2222222-2222222-2222222-|
D|--------------------------------|

Pre verse
gtr 1 [x2]
e|-----------------------------------------|
B|-----------------------------------------|
G|-44/66666-66/77777-77/99999-99/1111111111|
D|-----------------------------------------|
A|-22/44444-44/55555-55/77777-77/9-9-9-9-9-|
D|-----------------------------------------|

gtr 2 [x2]
e|--------------------------------|
B|--------------------------------|
G|-444444-4444444-----------------|
D|-444444-4444444-5555555-2222222-|
A|-222222-2222222-5555555-2222222-|
D|----------------5555555-2222222-|

then
gtr 1
e|------|
B|------|
G|-7-7-4|
D|------|
A|-5-5-2|
D|------|

gtr 2
e|------|
B|------|
G|------|
D|-5-5-2|
A|-5-5-2|
D|-5-5-2|

Verse
this is mainly drum lead, but if you want to play something here, i have a few things
fit...
e|-------------------|
B|-------------------|
G|-44444444----------|
D|-44444444-5555-2222|
A|-22222222-5555-2222|
D|----------5555-2222|
pm ........ .... ....

or
e|------------------------------------|
B|------------------------------------|
G|--444444-444444--121212121212-999999|
D|------------------------------------|
A|-2------2------10------------7------|
D|------------------------------------|

Pre Chorus
both gtrs
e|---------------------|
B|---------------------|
G|----------------4----|
D|-5----4----5----4----|
A|-5----4----5----2----|
D|-5----4----5---------|

Chorus is the same as the Pre Verse
for guitar one, the second time through, do not leave spaces/rests between chords

Verse

Pre Chorus

Chorus

Bridge
both gtrs
e|--------------------------------------|
B|--------------------------------------|
G|--------------------------------------|
D|-4-4-24-24-5555555-9-9-79-79-44444444-|
A|-4-4-24-24-5555555-9-9-79-79-44444444-|
D|-4-4-24-24-5555555-9-9-79-79-44444444-|

post bridge
gtr 1
e|-----------------------------------|
B|-----------------------------------|
G|-444444-44/66666-66/77777-77/99999-|
D|-----------------------------------|
A|-222222-22/44444-44/55555-55/77777-|
D|-----------------------------------|

gtr 2
e|-------------------------------|
B|-------------------------------|
G|-4--------------4--------------|
D|-4----5----2----4----5----2222-|
A|-2----5----2----2----5----2222-|
D|------5----2---------5----2222-|

Chorus

End

| /  slide up
| \  slide down
| h  hammer-on
| p  pull-off
| ~  vibrato
| +  harmonic
| x  Mute note
===============================================================================
            
Tabs too difficult? Try these video lessons and learn fast.


comments powered by Disqus
↑ Back to top | Tablatures and chords are parodies/interpretations of the original songs. You may use it for private study, scholarship, research or language learning purposes only