» » »

Someone Like You 1 Tabs (ver.8)

Artists:  A B C D E F G H I J K L M N O P Q R S T U V W X Y Z # 

Someone Like You 1 Tabs (ver.8)

Adele
Rating:
0/5 (0 votes)
Tabs too difficult? Try these video lessons and learn fast.
                Adele

Tuning: EADGBe


The Intro is just the Verse through once.


Verse: x2

e| ---------------------------------------------------------------------|
B| ------5-------5-------5-------5---------5-------5-------5-------5----|
G| ----6---6---6---6---6---6---6---6-----6---6---6---6---6---6---6---6--|
D| --7-------7-------7-------7---------6-------6-------6-------6--------|
A| ---------------------------------------------------------------------|
E| ---------------------------------------------------------------------|

e| ---------------------------------------------------------------------|
B| ---------------------------------------------------------------------|
G| -------10---------10---------10---------10---------------------------|
D| ----10----10---10----10---10----10---10----10------------------------|
A| --9----------9----------9----------9---------------------------------|
E| ---------------------------------------------------------------------|

e| ---------------------------------------------------------------------|
B| ------7-------7-------7-------7--------------------------------------|
G| ----7---7---7---7---7---7---7---7------------------------------------|
D| --7-------7-------7-------7------------------------------------------|
A| ---------------------------------------------------------------------|
E| ---------------------------------------------------------------------|

Bridge:

e| ---------------------------------------------------------------------|
B| ---------------------------------------------------------------------|
G| ------9-------9--------10---------10--------7-------7-------7--------|
D| ----9---9---9---9---10----10---10----10---7---7---7---7---7---7------|
A| --7-------7-------9----------9----------5-------5-------5------------|
E| ---------------------------------------------------------------------|

e| ---------------------------------------------------------------------|
B| ---------------------------------------------------------------------|
G| ------7---------9-------9--------10---------10----------11-----------|
D| ----7---7-----9---9---9---9---10----10---10----10----12----12--------|
A| --5---------7-------7-------9----------9----------12-----------------|
E| ---------------------------------------------------------------------|

e| ---------------------------------------------------------------------|
B| ---------------------------------------------------------------------|
G| -------11--------9-------9--------10---------10----------------------|
D| ----12----12---9---9---9---9---10----10---10----10-------------------|
A| -12----------7-------7-------9----------9----------------------------|
E| ---------------------------------------------------------------------|

Note: The second time the bridge is played, add this part to the end:

                                    +
e| ---------------------------------------------------------------------|
B| --------9-------9----------------------------------------------------|
G| ------9---9---9---9--------------------------------------------------|
D| ----9-------9--------------------------------------------------------|
A| ---------------------------------------------------------------------|
E| ---------------------------------------------------------------------|

Chorus: x4

e| ---------------------------------------------------------------------|
B| -------10-------10-------9-------9-----------------------------------|
G| -----9----9---9----9---9---9---9---9------10---------10--------------|
D| ---7--------7--------6-------6---------10----10---10----10-----------|
A| -------------------------------------9----------9--------------------|
E| ---------------------------------------------------------------------|

e| ---------------------------------------------------------------------|
B| ------7-------7------------------------------------------------------|
G| ----7---7---7---7----------------------------------------------------|
D| --7-------7----------------------------------------------------------|
A| ---------------------------------------------------------------------|
E| ---------------------------------------------------------------------|

End Bridge:

e| ---------------------------------------------------------------------|
B| ---------------------------------------------------------------------|
G| ------9-------9-------9-------9--------10---------10---------10------|
D| ----9---9---9---9---9---9---9---9---10----10---10----10---10---10----|
A| --7-------7-------7-------7-------9----------9----------9------------|
E| ---------------------------------------------------------------------|

e| ---------------------------------------------------------------------|
B| ---------------------------------------------------------------------|
G| -------10----------11----------11----------11----------11------------|
D| ----10----10----12----12----12----12----12----12----12----12---------|
A| --9----------12----------12----------12----------12------------------|
E| ---------------------------------------------------------------------|

e| ---------------------------------------------------------------------|
B| ---------------------------------------------------------------------|
G| --------16----------16---------10---------10----------11-------------|
D| -----14----14----14----14---10----10---10----10----12----12----------|
A| --14----------14----------9----------9----------12-------------------|
E| ---------------------------------------------------------------------|


e| ---------------------------------------------------------------------|
B| ---------------------------------------------------------------------|
G| --------11----------16----------16-----------------------------------|
D| -----12----12----14----14----14----14--------------------------------|
A| --12----------14----------14-----------------------------------------|
E| ---------------------------------------------------------------------|

Progression:
Verse | Bridge | Chorus | Verse | Bridge + | Chorus | End Bridge | Chorus


My second tab but first as a registered user. I also tabbed Khyber Pass by Ministry so 
            
Tabs too difficult? Try these video lessons and learn fast.


comments powered by Disqus
↑ Back to top | Tablatures and chords are parodies/interpretations of the original songs. You may use it for private study, scholarship, research or language learning purposes only