» » »

The Grind Bass tabs (ver.1)

Artists:  A B C D E F G H I J K L M N O P Q R S T U V W X Y Z # 

The Grind Bass tabs (ver.1)

Aerosmith
Rating:
0/5 (0 votes)

Tabs too difficult? Try these video lessons and learn fast.
                Album:Honkin' on Bobo
Bassist:Tom Hamilton

This is an awesome bluesy tune, and is definately a correct tab. Also feel free to throw 
in some improve. here ya go...

Key:
x = times a number

Intro
                                           x2
G:------------------------------------------|
D:------------------------------------------|
A:4--4-4--4-4--4-4--4--0--0-0--0-0--0-0--0--|
E:------------------------------------------|

Verse
                                           x2
G:------------------------------------------|
D:------------------------------------------|
A:4--4-4--4-4--4-4--4--0--0-0--0-0--0-0--0--|
E:------------------------------------------|

Pre-chorus (the burning bed...)
G:--------------------------------------|
D:--------------------------------------|
A:-----------5--5-5--5------------------|
E:2--2-2--2-------------4--4-4--4-4--4-4|

Chorus (yeah...i'm missin' you...)
G:----------------------------------------------------------------------------------|
D:----------------------------------------------------------------------------------|
A:0--0-0--0--4--4-4--4--0--0-0--0------7--4--4-4--4-------------0--0-0--0--2--2-2--2|
E:---------------------------------0-0---------------2--2-2--2----------------------|

G:------------------------------------------|
D:------------------------------------------|
A:4--4-4--4-4--4-4--4--0--0-0--0-0--0-0--0--|
E:------------------------------------------|

Bridge (cloud we was on...)
G:--------------------------------------------------------------------|
D:--------------------------------------------------------------------|
A:0--0-0--0-0--0-0--0--4--4-4--4-4--4-4--4--0--0-0--0-----------------|
E:-----------------------------------------------------2--2-2--2--4x12|

G:-------------------------------------------------------------------|
D:-------------------------------------------------------------------|
A:4--4-4--4-4--4-4--4--0--0-0--0-0--0-0--0--4--4-4--4-4--4-4--4------|
E:---------------------------------------------------------------4x12|

That's it. Might look confusing, but once you get the gist of it, then your good. Like 
I said before, this is an awesome song for improve, so throw some in. Any questions or 
            
Tabs too difficult? Try these video lessons and learn fast.




comments powered by Disqus
↑ Back to top | Tablatures and chords are parodies/interpretations of the original songs. You may use it for private study, scholarship, research or language learning purposes only