» » »

Lied In Sin Tabs (ver.1)

Artists:  A B C D E F G H I J K L M N O P Q R S T U V W X Y Z # 

Lied In Sin Tabs (ver.1)

A Smile From The Trenches
Rating:
4/5 (1 vote)
Tabs too difficult? Try these video lessons and learn fast.
                Band: A Smile From The Trenches

Here is the song/lyrics:




This is my first tab! :D Although I couldn't really hear some parts so comment for
improvements on the tab and I'm not 100% on some parts but It tried my best. ALSO! Look
forward for more ASFTT stuff cause their coming back!!! >:D PS. I'll have my cover video 
up as soon as I can! :) Thanks!

[INTRO]
Gtr1
0:00-0:16                                    (0utro of Intro) 0:17
e|---------------------------------------|     e|--------------|
B|---------------------------------------|     B|--------------|
G|---------------------------------------|  x4 G|--------------|
D|---------------------------------------|     D|--------------|
A|-9h10-9--9h10-9--12--9h10-9--9h10-9--7-|     A|-9-7-8-6-7/5b-|
D|---------------------------------------|     D|--------------|

Gtr2
0:09-0:16
e|--------------------------------------------|
B|--------------------------------------------|
G|--------------------------------------------| x2
D|--------------------------------------------|
A|-99-9h10-9--9h10-9--12--9h10-9--9h10-9--7---|
D|-99-9h10-9--9h10-9--12--9h10-9--9h10-9--7---|

[VERSE]
Both Gtrs
0:19-0:28
e|-------------------------------------------|
B|-------------------------------------------|
G|-9------7------9-----777755554444----------|
D|-9-x5---7-x5---9-x5--777755554444-5-4-3-2--|
A|-7------5------7-----555533332222----------|
D|-------------------------------------------|

0:29-0:38
e|----------------------------------------------|
B|----------------------------------------------|
G|----------------------------------------------| x2
D|----------------------------------------------|
A|-77h10-77h10-7h10-77h10--77h9-77h9-77h9-77h9--|
D|----------------------------------------------|

[CHORUS]
Both Gtrs
(Regular Strums)
0:39-0:47
e|--------------------------------|
B|--------------------------------|
G|--------------------------------|
D|-5------4------9------7---------|
A|-5-x12--4-x12--9-x12--7-x12-----|
D|-5------4------9------7---------|

Both Gtrs
(Try to firgure out the strumming pattern, not that hard.)
0:48-0:56
e|--------------------------------|
B|--------------------------------|
G|--------------------------------|
D|-5-----4-----9-----7------------|
A|-5-x2--4-x2--9-x2--7-x2---------|
D|-5-----4-----9-----7------------|

[VERSE]
Gtr 1
Tremolo
(Not 100% sure about the times it's repeated)
0:57-1:15
e|----------------------------------------------------------|
B|----------------------------------------------------------|
G|----------------------------------------------------------|
D|----------------------------------------------------------| x3
A|-999999999999777777777799991010101012121212101010109999---|
D|----------------------------------------------------------|

[Verse]
Both Gtrs
1:16-1:26
e|-------------------------------------------|
B|-------------------------------------------|
G|-9------7------9-----777755554444----------|
D|-9-x5---7-x5---9-x5--777755554444-5-4-3-2--|
A|-7------5------7-----555533332222----------|
D|-------------------------------------------|

1:27-1:36
e|----------------------------------------------|
B|----------------------------------------------|
G|----------------------------------------------| x2
D|----------------------------------------------|
A|-77h10-77h10-7h10-77h10--77h9-77h9-77h9-77h9--|
D|----------------------------------------------|

[CHORUS]
Both Gtrs
(Regular Strums)
1:37-1:45
e|--------------------------------|
B|--------------------------------|
G|--------------------------------|
D|-5------4------9------7---------|
A|-5-x12--4-x12--9-x12--7-x2------|
D|-5------4------9------7---------|


Both Gtrs
(Again, Try to firgure out the strumming pattern)
1:46-1:55
e|--------------------------------|
B|--------------------------------|
G|--------------------------------|
D|-5-----4-----9-----7------------|
A|-5-x2--4-x2--9-x2--7-x2---------|
D|-5-----4-----9-----7------------|

[Breakdown]
Gtr 1
(Gtr 1 plays the same all throughout until the end, not sure how many time you repeat this)
1:55-2:20
e|------------------------------------------|
B|------------------------------------------|
G|------------------------------------------|
D|------------------------------------------|
A|-9999777799991010101012121212101010109999-|
D|------------------------------------------|

Gtr2
(Gtr 2 comes in when scream "ESCAPE THE FATE")
2:00-2:20
e|--------------------------------|
B|--------------------------------|
G|--------------------------------|
D|-9-----9-----9/5/7--9-----------| x4
A|-9-x5--9-x5--9/5/7--9-x5--------|
D|-9-----9-----9/5/7--9-----------|

[Outro]
Gtr 1
2:19-2:25
(Played soft & low)
e|--------------------------------|
B|--------------------------------|
G|--------------------------------|
D|--------------------------------|
A|--9--7--9-10-12-10-9~~~---------|
D|--------------------------------|



b -bend
h -hammer on
/ -slide
~ -hold

Thanks, Comment, Rate! :D


{LYRICS}
You thought I died
But my soul was still alive
Inside and out
Screaming for your love
It's what I aim for
And all I ever wanted was in
But it worked out the way you wanted

So burn my body in the fire that you made
And I'm burning within so escape the fate
A tragic heartshed without hope within
Scream your name grab your legs as you walk away

I always thought it was meant to be
But the whole time it was a hateful theme
I'll lay my corpse in the water [SO YOU WON'T GET WET]
I'll smother the flames with my skin [YOU LIVE IN REGRET]

You thought I died
But my soul was still alive
Inside and out
Screaming for your love
It's what I aim for
And all I ever wanted was in
But it worked out the way you wanted

So burn my body in the fire that you made
And I'm burning within so escape the fate
A tragic heartshed without hope within
Scream your name grab your legs as you walk away

[ESCAPE THE FATE]

So burn my body in the
Fire that you made
And I'm burning within so
Escape the fate
A tragic heartshed
I'm burning in the flames
Scream your name
Grab your legs as you walk away
            
Tabs too difficult? Try these video lessons and learn fast.


comments powered by Disqus
↑ Back to top | Tablatures and chords are parodies/interpretations of the original songs. You may use it for private study, scholarship, research or language learning purposes only