» » »

Hot Tabs (ver.3)

Artists:  A B C D E F G H I J K L M N O P Q R S T U V W X Y Z # 

Hot Tabs (ver.3)

Avril Lavigne
Rating:
0/5 (0 votes)
Tabs too difficult? Try these video lessons and learn fast.
                ...Just one of my few tabs..hope you like..soz if they're
 not 100% correct..but im only 13

Tuning: Standard (eBGDAE)


Intro:
G#5 D#5 A#5 C#5 2x
You're so good to me baby baby

Verse:
G#5           F5                C5            C#5
    I want to lock you up in my closet, where no one's around
G#5           F5                  C5        C#5
    I want to put your hand in my pocket, because you're allowed
G#5           F5                 C5          C#5
    I want to drive you into the corner, and kiss you without a sound
G#5           F5               C5                C#5
    I want to stay this way forever, I'll say it loud

Pre-chorus:
A#5                       C#5
    Now you're in and you can't get out

Chorus:
               D#5
You make me so hot
              A#5
Make me wanna drop
                C#5
You're so ridiculous
             G#5
I can barely stop
             D#5
I can hardly breathe
                  A#5
You make me wanna scream
              C#5
You're so fabulous
                  G#5    D#5    A#5
You're so good to me     Baby   Baby
C#5                G#5     D#5   A#5   C#5
 You're so good to me     Baby   Baby

Verse 2:
G#5      F5                C5           C#5
   I can make you feel all better, just take it in
G#5          F5               C5             C#5
   And I can show you all the places, you've never been
G#5          F5              C5                C#5
   And I can make you say everything, that you never said
G#5           F5          C5        C#5
   And I will let you do anything, again and again

Pre-chorus:
A#5                      C#5
   Now you're in and you can't get out

Chorus:
               D#5
You make me so hot
              A#5
Make me wanna drop
                C#5
You're so ridiculous
             G#5
I can barely stop
             D#5
I can hardly breathe
                  A#5
You make me wanna scream
              C#5
You're so fabulous
                  G#5    D#5    A#5
You're so good to me     Baby   Baby
C#5                G#5     D#5   A#5   C#5
 You're so good to me     Baby   Baby

Interlude:
e|-----------------------------------------------|
B|-----------------6h7p6-------------------------|
G|--------------6--------5-------------------8---|
D|-----8------6------------6--------6------8---8-|
A|---8---8--4---------------------6---6--6-------|
E|-6----------------------------4----------------|

e|----------------------------------------------------|
B|----------------6h7p6---------------------8h9p8-----|
G|--------------6-------5-----------------8-------8---|
D|-----8------6-----------6------6------8-----------8-|
A|---8---8--4------------------6---6--6---------------|
E|-6-------------------------4------------------------|

e|----------------------------------------------------|
B|----------------6h7p6---------------------8h9p8-----|
G|--------------6-------5-----------------8-------8---|
D|-----8------6-----------6------6------8-----------8-|
A|---8---8--4------------------6---6--6---------------|
E|-6-------------------------4------------------------|

e|-----------------------------|
B|-----------------6h7p6-------|
G|--------------6--------5-----|
D|-----8------6------------6-6-|
A|---8---8--4--------------6-6-|
E|-6-----------------------4-4-|

Kiss me gently
Always I know
Hold me love me
Don't ever go

Chorus: x2-ish
               D#5
You make me so hot
              A#5
Make me wanna drop
                C#5
You're so ridiculous
             G#5
I can barely stop
             D#5
I can hardly breathe
                  A#5
You make me wanna scream
              C#5
You're so fabulous
                  G#5
You're so good to me     
               D#5
You make me so hot
              A#5
Make me wanna drop
                C#5
You're so ridiculous
             G#5
I can barely stop
             D#5
I can hardly breathe
                  A#5
You make me wanna scream
              C#5
You're so fabulous
                  G#5    D#5    A#5
You're so good to me     Baby   Baby

C#5                G#5     D#5   A#5   C#5
 You're so good to me     Baby   Baby

You're so good....
 
Chords:
G#5: 321003
D#5: xx0332
A#5: x03221
C#5: x32110
C5:  x35533


well...thats it. hope ya like it coz it took 4eva to try and figure out these chords..

anywayz,, bye!!
            
Tabs too difficult? Try these video lessons and learn fast.


comments powered by Disqus
↑ Back to top | Tablatures and chords are parodies/interpretations of the original songs. You may use it for private study, scholarship, research or language learning purposes only