» » »

I Can Do Better Tabs (ver.3)

Artists:  A B C D E F G H I J K L M N O P Q R S T U V W X Y Z # 

I Can Do Better Tabs (ver.3)

Avril Lavigne
Rating:
0/5 (0 votes)

Tabs too difficult? Try these video lessons and learn fast.
                -------------------------------------------------------------------------------
                          I Can Do Better - Avril Lavigne
-------------------------------------------------------------------------------

Tuning: Standard EADGBe

Intro:

Guitar 1
  C5              G5      F5
e|--------------------------------|
B|--------------------------------|
G|5555555555555555----------------|
D|55555555555555555555555533333333|
A|33333333333333335555555533333333|
E|----------------3333333311111111|

Verse 1:

Guitar 1
  C5              G5      F5
e|--------------------------------|x4
B|--------------------------------|x4
G|5555555555555555----------------|x4
D|55555555555555555555555533333333|x4
A|33333333333333335555555533333333|x4
E|----------------3333333311111111|x4

Guitar 2
e|--------------------------------|x2|--------------------------------|x2
B|--------------------------------|x2|--------------------------------|x2
G|--------------------------------|x2|55555555555555554444444455555555|x2
D|--------------------------------|x2|55555555555555555555555555555555|x2
A|--------------------------------|x2|--------------------------------|x2
E|--------------------------------|x2|--------------------------------|x2

Pre-Chorus:

Guitar 1
  A5       F5       A5       F5      G5
e|-------------------------------------------|
B|-------------------------------------------|
G|-------------------------------------------|
D|7-7------3-3------7-7------3-3-3-3-55555555|
A|7-7------3-3------7-7------3-3-3-3-55555555|
E|5-5------1-1------5-5------1-1-1-1-33333333|

Chorus:

Guitar 1
  Fingerpicking
e|-------------------------------------------------------------------|x2
B|-------------------------------------------------------------------|x2
G|-------------------------------------------------------------------|x2
D|-------------------------------------------------------------------|x2
A|777777771010108887755555555888777553333333377755533----------------|x2
E|---------------------------------------------------3333333333333333|x2

Guitar 2
  C5              G5              A5              F5
e|----------------------------------------------------------------|x2
B|----------------------------------------------------------------|x2
G|5555555555555555------------------------------------------------|x2
D|5555555555555555555555555555555577777777777777773333333333333333|x2
A|3333333333333333555555555555555577777777777777773333333333333333|x2
E|----------------333333333333333355555555555555551111111111111111|x2

Verse 2:

Guitar 1
  C5              G5      F5
e|--------------------------------|x4
B|--------------------------------|x4
G|5555555555555555----------------|x4
D|55555555555555555555555533333333|x4
A|33333333333333335555555533333333|x4
E|----------------3333333311111111|x4

Guitar 2
e|--------------------------------|x2|--------------------------------|x2
B|--------------------------------|x2|--------------------------------|x2
G|--------------------------------|x2|55555555555555554444444455555555|x2
D|--------------------------------|x2|55555555555555555555555555555555|x2
A|--------------------------------|x2|--------------------------------|x2
E|--------------------------------|x2|--------------------------------|x2

Pre-Chorus:

Guitar 1
  A5       F5       A5       F5      G5
e|-------------------------------------------|
B|-------------------------------------------|
G|-------------------------------------------|
D|7-7------3-3------7-7------3-3-3-3-55555555|
A|7-7------3-3------7-7------3-3-3-3-55555555|
E|5-5------1-1------5-5------1-1-1-1-33333333|

Chorus:

Guitar 1
  Fingerpicking
e|-------------------------------------------------------------------|x2
B|-------------------------------------------------------------------|x2
G|-------------------------------------------------------------------|x2
D|-------------------------------------------------------------------|x2
A|777777771010108887755555555888777553333333377755533----------------|x2
E|---------------------------------------------------3333333333333333|x2

Guitar 2
  C5              G5              A5              F5
e|----------------------------------------------------------------|x2
B|----------------------------------------------------------------|x2
G|5555555555555555------------------------------------------------|x2
D|5555555555555555555555555555555577777777777777773333333333333333|x2
A|3333333333333333555555555555555577777777777777773333333333333333|x2
E|----------------333333333333333355555555555555551111111111111111|x2

Guitar 3
  Fingerpicking
e|12-13-15-13|x8
B|-----------|x8
G|-----------|x8
D|-----------|x8
A|-----------|x8
E|-----------|x8

Bridge:

Nothing is played here by any guitars

Ending:

Guitar 1
  Fingerpicking
e|-------------------------------------------------------------------|x4
B|-------------------------------------------------------------------|x4
G|-------------------------------------------------------------------|x4
D|-------------------------------------------------------------------|x4
A|777777771010108887755555555888777553333333377755533----------------|x4
E|---------------------------------------------------3333333333333333|x4

Guitar 2
  C5              G5              A5              F5
e|----------------------------------------------------------------|x4|--|
B|----------------------------------------------------------------|x4|--|
G|5555555555555555------------------------------------------------|x4|5~|
D|5555555555555555555555555555555577777777777777773333333333333333|x4|5~|
A|3333333333333333555555555555555577777777777777773333333333333333|x4|3~|
E|----------------333333333333333355555555555555551111111111111111|x4|--|

Guitar 3
  Fingerpicking
e|12-13-15-13|x16
B|-----------|x16
G|-----------|x16
D|-----------|x16
A|-----------|x16
E|-----------|x16

************************************

| -   half-beat
| ~   vibrato

************************************
            
Tabs too difficult? Try these video lessons and learn fast.




comments powered by Disqus
↑ Back to top | Tablatures and chords are parodies/interpretations of the original songs. You may use it for private study, scholarship, research or language learning purposes only