» » »

Keep Holding On Bass tabs (ver.1)

Artists:  A B C D E F G H I J K L M N O P Q R S T U V W X Y Z # 

Keep Holding On Bass tabs (ver.1)

Avril Lavigne
Rating:
0/5 (0 votes)
Tabs too difficult? Try these video lessons and learn fast.
                This is how Charlie plays here

* - means harmonics

Intro:
G|-0~----------------5~----5*-|
D|--------4~---2~-------------|
A|----------------------------|
E|----------------------------|

Verse 1:
G|----------------5*-|
D|-------------------|
A|-------------3-----| (x2)
E|-3---2---0---------|


Refrain:
G|-----------------------------------------------------|
D|-------------------------------------------------0-4-|
A|-----------2-3-3-3-3-3-3-----------2-3-3-3-3-2-0-----|
E|-0-0-0-0-0---------------0-0-0-0-0-------------------|


Chorus:
G|-------------------------------------------5-4-2-|
D|-------------------------------2-4-5-----5-------|
A|-----------------------------2-------3-3---------|
E|-3-3-3-3-3-3-2-2-2-2-2-2-0-0---------------------|

there's nothing you could say
G|----------------------------11-12-11---------9-11-12-------5-4-2-|
D|-------------------------11----------------9-------------5-------|
A|-5/10-10-10-10-10-10-9-9-------------5/7-7-----------3-3---------|
E|-----------------------------------------------------------------|


Verse 2:
G|---------------------|
D|-----------------10~-|
A|-10~---9~---7~-------|
E|---------------------|

Before the doors close
G|----------------5*-|
D|-------------------|
A|-------------3-----|
E|-3---2---0---------|


(Repeat Refrain and Chorus)


Bridge: Nothing's gonna change gonna change...
G|-----------------5-5-5*|-------------------4---5*-|
D|---------------5-------|-------------2-2-4---2----|
A|-0-0-0-0-2-3-3---------|-0-0-0-0-0-2--------------|
E|-----------------------|--------------------------|

Whatever's meant to be will work out perfect ly yeah yeah yeah
G|-----------------5-5-5*|-------------------------|
D|---------------5-------|---------------------2-4-|
A|-0-0-0-0-2-3-3---------|-3-3-3-3-3-3-3-3-3-5-----|
E|-----------------------|-------------------------|

la da da da
G|---------------------|
D|-----------------10~-|
A|-10~---9~---7~-------|
E|---------------------|

(Repeat Chorus until fade out)
            
Tabs too difficult? Try these video lessons and learn fast.


comments powered by Disqus
↑ Back to top | Tablatures and chords are parodies/interpretations of the original songs. You may use it for private study, scholarship, research or language learning purposes only