» » »

I Could Be The One Tabs (ver.3)

Artists:  A B C D E F G H I J K L M N O P Q R S T U V W X Y Z # 

I Could Be The One Tabs (ver.3)

Avicii
Rating:
0/5 (0 votes)

Tabs too difficult? Try these video lessons and learn fast.
                (3)
-------------------------------------------------------------------------------
                 I COULD BE THE ONE – Avicii VS Nicky Romero
-------------------------------------------------------------------------------
 
Tuning: Drop D (DADGBe)
 
INTRO

Lead (4x)
e|------------------------------------------------------|
B|------------------------------------------------------|
G|------------------------------------------------------|
D|------------------------------------------------------|
A|7-p-0-h-4-p-0-h-2-p-0-7-p-0-h-4-p-0-h-2-p-0-h-4--0-h-2|
D|------------------------------------------------------|
 
VERSE

Lead (4x)
e|-------------------7-5-4------5-4-0----2-------|
B|-------------------------7-----------2---------|
G|-----7-6-------------------6-------------------|
D|7—4------7—-4-7-----------------------------2-4|
A|-----------------------------------------------|
D|-----------------------------------------------|

Rhythm (Play during last 2 times of lead)
e|0---2---0-------2---0---4-------|
B|2---3---2-------2---2---5-------|
G|2---4---2-------2---2---6-------|
D|2---4---2-------4---2---6-------|
A|0---2---0-------4---0---4-------|
D|----------------4---------------|

PRE-CHORUS

Lead (2x)
e|-------------------7-5-4------5-4-0----2------------------------|
B|-------------------------7-----------2--------------------------|
G|-----7-6-------------------6---------------------------7-6------|
D|7—4------7—-4-7-----------------------------2-4-7-7-4------7—4-7|
A|----------------------------------------------------------------|
D|----------------------------------------------------------------|
 
e|7-5-4------5-4-0----2--------|
B|------7-----------2-----5----|
G|--------6-----------------6-4|
D|-----------------------------|
A|-----------------------------|
D|-----------------------------|

Rhythm (4x)
e|----------------------------------------------------------------|
B|----------------------------------------------------------------|
G|--------------------------------4-4-4-4-6-6-6-6-7-7-7-9-9-9-9-9-|
D|4-4-4-4-7-7-7-7-0-0-0-0-0-0-0-0-4-4-4-4-6-6-6-6-7-7-7-9-9-9-9-9-|
A|4-4-4-4-7-7-7-7-0-0-0-0-0-0-0-0-2-2-2-2-4-4-4-4-5-5-5-7-7-7-7-7-|
D|4-4-4-4-7-7-7-7-0-0-0-0-0-0-0-0---------------------------------|

CHORUS

Lead 1 (4x)
e|----------------------------------------------------------------|
B|----------------------------------------------------------------|
G|6-6-6-6-9-9-9-9-7-7-7-4-4-4-4-4---------------------------------|
D|x-x-x-x-x-x-x-x-x-x-x-x-x-x-x-x-4-4-4-4-6-6-6-6-7-7-7-9-9-9-9-9-|
A|4-4-4-4-7-7-7-7-5-5-5-2-2-2-2-2-x-x-x-x-x-x-x-x-x-x-x-x-x-x-x-x-|
D|--------------------------------4-4-4-4-6-6-6-6-7-7-7-9-9-9-9-9-|

Lead 2 (4x)
e|-------------------------------------------------|
B|10-10-10-10-10-10-10-10-D10-10-10-10\0---10-10-10|
G|-------------------------------------------------|
D|-------------------------------------------------|
A|-------------------------------------------------|
D|-------------------------------------------------|

e|------------9------------------------------------|
B|10-10-10-10----10-10-10-D10-10-10-10\0---10-10-10|
G|-------------------------------------------------|
D|-------------------------------------------------|
A|-------------------------------------------------|
D|-------------------------------------------------|
  
Rhythm (4x)
e|----------------------------------------------------------------|
B|----------------------------------------------------------------|
G|--------------------------------4-4-4-4-6-6-6-6-7-7-7-9-9-9-9-9-|
D|4-4-4-4-7-7-7-7-0-0-0-0-0-0-0-0-4-4-4-4-6-6-6-6-7-7-7-9-9-9-9-9-|
A|4-4-4-4-7-7-7-7-0-0-0-0-0-0-0-0-2-2-2-2-4-4-4-4-5-5-5-7-7-7-7-7-|
D|4-4-4-4-7-7-7-7-0-0-0-0-0-0-0-0---------------------------------|
 
BRIDGE

Lead (32x)
e|------------------------------------------------------|
B|------------------------------------------------------|
G|------------------------------------------------------|
D|------------------------------------------------------|
A|7-p-0-h-4-p-0-h-2-p-0-7-p-0-h-4-p-0-h-2-p-0-h-4--0-h-2|
D|------------------------------------------------------|

Strings (8x)
e|----------------------------------------------------------------|
B|----------------------------------------------------------------|
G|----------------------------------------------------------------|
D|----------------------------------------------------------------|
A|----------------------------------------------------------------|
D|4---------------7---------------2---------------0---------------| 

************************************
 
| \   slide down
| h   hammer-on
| p   pull-off
| x   mute note
 
************************************
            
Tabs too difficult? Try these video lessons and learn fast.




comments powered by Disqus
↑ Back to top | Tablatures and chords are parodies/interpretations of the original songs. You may use it for private study, scholarship, research or language learning purposes only