» » »

Shining Tabs (ver.2)

Artists:  A B C D E F G H I J K L M N O P Q R S T U V W X Y Z # 

Shining Tabs (ver.2)

Badly Drawn Boy
Rating:
4/5 (7 votes)

Tabs too difficult? Try these video lessons and learn fast.
                    E                             Amaj7
e|-----0-0-0-0-----0-0-----0-0--------0-0-0-0-----0-0-----0-0------|
B|-----0-0-0-0-----0-0-----0-0--------2-2-2-2-----2-2-----2-2------|
G|-----1-1-1-1-----1-1-----1-1--------1-1-1-1-----1-1--1--1-1------|
D|--2--2-2-2-2-----2-2--2--2-2--------2-2-2-2--2--2-2-----2-2--2---|
A|-----2-2-2-2--2--2-2-----2-2--2--0--0-0-0-0-----0-0-----0-0------|
E|-----0-0-0-0-----0-0-----0-0--------0-0-0-0-----0-0-----0-0------|

This bit repeats over "Faith pours from your walls..."

(Ai - x04440)

    Ai                  A                E
"To put a little bit of sunshine in your life."

And then this is how I play the "Soleil, all over you" bit...

   E         Amaj7            E              Amaj7            E
e|-0--2---0-----0-----3---2---0-----2----0----0-----3-----2---0----------|
B|-0--0---0-----2-----2---2---0-----0----0----2-----2-----2---0----------|
G|-1--1---1-----1-----1---1---1-----1----1----1-----1-----1---1----------|
D|-2--2---2-----2-----2---2---2-----2----2----2-----2-----2---2----------|
A|-2--2---2-----0-----0---0---2-----2----2----0-----0-----0---2----------|
E|-0--0---0-----0-----0---0---0-----0----0----0-----0-----0---0----------|
      Sol-eil,       all over you, warm sun,       pours over me.

Then you just go back into the beginning bit again.
Hope that makes some sense...
            
Tabs too difficult? Try these video lessons and learn fast.




comments powered by Disqus
↑ Back to top | Tablatures and chords are parodies/interpretations of the original songs. You may use it for private study, scholarship, research or language learning purposes only