» » »

Blenderhead Tabs (ver.1)

Artists:  A B C D E F G H I J K L M N O P Q R S T U V W X Y Z # 

Blenderhead Tabs (ver.1)

Bad Religion
Rating:
0/5 (0 votes)

Tabs too difficult? Try these video lessons and learn fast.
                -------------------------------------------------------------------------------
Against The Grain
-------------------------------------------------------------------------------

Tuning:
Guitar 1: EADGBE
Guitar 2: EADGBE

e|-----------------|     e|---------------|  e|-----------------|     e|-----------------|
B|-----------------|     B|---------------|  B|-----------------|     B|-----------------|
G|-9-9-9-9-7-7-7-7-|     G|-5-5-5-5-4--7--|  G|-9-9-9-9-7-7-7-7-|     G|-5-5-5-5---------|
D|-9-9-9-9-7-7-7-7-| x3  D|-5-5-5-5-4--7--|  D|-9-9-9-9-7-7-7-7-| x3  D|-5-5-5-5-5-5-5-5-|
A|-7-7-7-7-5-5-5-5-|     A|-3-3-3-3-2--5--|  A|-7-7-7-7-5-5-5-5-|     A|-3-3-3-3-5-5-5-5-|
E|-----------------|     E|---------------|  E|-----------------|     E|---------3-3-3-3-|

e|-----------------|     e|-------------------------------------------------|
B|-----------------|     B|-------------------------------------------------|
G|-9-9-9-9-7-7-7-7-|     G|-5-5-5-5-4-4-4-4-5-5-5-5---------7-7-7-7-9-9-9-9-|
D|-9-9-9-9-7-7-7-7-| x3  D|-5-5-5-5-4-4-4-4-5-5-5-5-5-5-5-5-7-7-7-7-9-9-9-9-|
A|-7-7-7-7-5-5-5-5-|     A|-3-3-3-3-2-2-2-2-3-3-3-3-5-5-5-5-5-5-5-5-7-7-7-7-|
E|-----------------|     E|-------------------------3-3-3-3-----------------|

e|-----------------------------------------------------------------|
B|-----------------------------------------------------------------|
G|-10-10-10-10-------------12-12-12-12-9-9-9-9---------10-10-10-10-|
D|-10-10-10-10-10-10-10-10-12-12-12-12-9-9-9-9-8-8-8-8-10-10-10-10-|
A|--8--8--8--8-10-10-10-10-10-10-10-10-7-7-7-7-8-8-8-8--8--8--8--8-|
E|--------------8--8--8--8---------------------6-6-6-6-------------|

e|-----------------------------------------------------------------|
B|-----------------------------------------------------------------|
G|-------------8-8-8-8---------10-10-10-10-------------12-12-12-12-|
D|-10-10-10-10-8-8-8-8-8-8-8-8-10-10-10-10-10-10-10-10-12-12-12-12-| 
A|-10-10-10-10-6-6-6-6-8-8-8-8--8--8--8--8-10-10-10-10-10-10-10-10-|
E|--8--8--8--8--------6-6-6-6--------------8--8--8--8--------------|

Guitar 2:
e|-5-3-5-3-5-3-5-3-----------------5-3-5-3-5-3-5-3-|
B|-5-3-5-3-5-3-5-3-----------------5-3-5-3-5-3-5-3-|
G|-------------------------------------------------|
D|-------------------------------------------------| 
A|-------------------------------------------------|
E|-------------------------------------------------|
Guitar 1:                            
e|-------------------------------------------------|
B|-------------------------------------------------|
G|-6-6-6-6-6-6-6-6-----------------6-6-6-6-6-6-6-6-|
D|-6-6-6-6-6-6-6-6-5-5-5-5-5-5-5-5-6-6-6-6-6-6-6-6-| 
A|-4-4-4-4-4-4-4-4-5-5-5-5-5-5-5-5-4-4-4-4-4-4-4-4-|
E|-----------------3-3-3-3-3-3-3-3-----------------|

e|-----------------|     e|---------------|  e|-----------------|     e|-----------------|
B|-----------------|     B|---------------|  B|-----------------|     B|-----------------|
G|-9-9-9-9-7-7-7-7-|     G|-5-5-5-5-4--7--|  G|-9-9-9-9-7-7-7-7-|     G|-5-5-5-5---------|
D|-9-9-9-9-7-7-7-7-| x3  D|-5-5-5-5-4--7--|  D|-9-9-9-9-7-7-7-7-| x3  D|-5-5-5-5-5-5-5-5-|
A|-7-7-7-7-5-5-5-5-|     A|-3-3-3-3-2--5--|  A|-7-7-7-7-5-5-5-5-|     A|-3-3-3-3-5-5-5-5-|
E|-----------------|     E|---------------|  E|-----------------|     E|---------3-3-3-3-|

e|-----------------|     e|-------------------------------------------------|
B|-----------------|     B|-------------------------------------------------|
G|-9-9-9-9-7-7-7-7-|     G|-5-5-5-5-4-4-4-4-5-5-5-5---------7-7-7-7-9-9-9-9-|
D|-9-9-9-9-7-7-7-7-| x3  D|-5-5-5-5-4-4-4-4-5-5-5-5-5-5-5-5-7-7-7-7-9-9-9-9-|
A|-7-7-7-7-5-5-5-5-|     A|-3-3-3-3-2-2-2-2-3-3-3-3-5-5-5-5-5-5-5-5-7-7-7-7-|
E|-----------------|     E|-------------------------3-3-3-3-----------------|

e|-----------------------------------------------------------------|
B|-----------------------------------------------------------------|
G|-10-10-10-10-------------12-12-12-12-9-9-9-9---------10-10-10-10-|
D|-10-10-10-10-10-10-10-10-12-12-12-12-9-9-9-9-8-8-8-8-10-10-10-10-|
A|--8--8--8--8-10-10-10-10-10-10-10-10-7-7-7-7-8-8-8-8--8--8--8--8-|
E|--------------8--8--8--8---------------------6-6-6-6-------------|

e|-----------------------------------------------------------------|
B|-----------------------------------------------------------------|
G|-------------8-8-8-8---------10-10-10-10-------------12-12-12-12-|
D|-10-10-10-10-8-8-8-8-8-8-8-8-10-10-10-10-10-10-10-10-12-12-12-12-| 
A|-10-10-10-10-6-6-6-6-8-8-8-8--8--8--8--8-10-10-10-10-10-10-10-10-|
E|--8--8--8--8--------6-6-6-6--------------8--8--8--8--------------|

Guitar 2:
e|-5-3-5-3-5-3-5-3-----------------5-3-5-3-5-3-6-5-|
B|-5-3-5-3-5-3-5-3-----------------5-3-5-3-5-3-6-5-|
G|-------------------------------------------------|
D|-------------------------------------------------| 
A|-------------------------------------------------|
E|-------------------------------------------------|
Guitar 1:                            
e|-------------------------------------------------|
B|-------------------------------------------------|
G|-6-6-6-6-6-6-6-6-----------------6-6-6-6-6-6-6-6-|
D|-6-6-6-6-6-6-6-6-5-5-5-5-5-5-5-5-6-6-6-6-6-6-6-6-| 
A|-4-4-4-4-4-4-4-4-5-5-5-5-5-5-5-5-4-4-4-4-4-4-4-4-|
E|-----------------3-3-3-3-3-3-3-3-----------------|

Guitar 2:
e|-3---------------5-3-5-3-5-3-5-3-|
B|-3---------------5-3-5-3-5-3-5-3-|
G|---------------------------------|
D|---------------------------------| 
A|---------------------------------|
E|---------------------------------|
Guitar 1:
e|---------------------------------|
B|---------------------------------|
G|-----------------6-6-6-6-6-6-6-6-|
D|-5-5-5-5-5-5-5-5-6-6-6-6-6-6-6-6-| 
A|-5-5-5-5-5-5-5-5-4-4-4-4-4-4-4-4-|
E|-3-3-3-3-3-3-3-3-----------------|

| ^w whole step bend
| ^h half step bend
| /  slide up
| \  slide down
| h  hammer-on
| p  pull-off
| ~  vibrato
| +  harmonic
| X  Mute note
===============================================================================
            
Tabs too difficult? Try these video lessons and learn fast.




comments powered by Disqus
↑ Back to top | Tablatures and chords are parodies/interpretations of the original songs. You may use it for private study, scholarship, research or language learning purposes only