» » »

We Re Only Gonna Die Tabs (ver.1)

Artists:  A B C D E F G H I J K L M N O P Q R S T U V W X Y Z # 

We Re Only Gonna Die Tabs (ver.1)

Bad Religion
Rating:
0/5 (0 votes)

Tabs too difficult? Try these video lessons and learn fast.
                I thought i would tab this as its such an amazing song,  rythm chords are G,D,A,C
Song-We're Only Gonna Die                                (im sure you knowm what to
Album-How Could Hell Be Any Worse   /slide >let ring      play and when)this is 
INTRO/MAIN RIFF                                            Greg Hetson plys
e|------------------------------------------------------------
B|------------------------------------------------------------
G|------------------------------5-----------------------------
D|-5-/-7-7---5-/-7-7--5-/-7-7---5--5--------------------------PLAY 4 TIMES
A|-5-/-7-7---5-/-7-7--5-/-7-7---3--5--------------------------
E|-3-/-5-5---3-/-5-5--3-/-5-5------3--------------------------

VERSE
e|----------------------------------------------------------
B|----------------------------------------------------------
G|-------------------7-7-7-7--------------------------------
D|-7-7-7-7--5-5-5-5--7-7-7-7--7-7-7-7----------------------- PLAY 6 TIMES
A|-7-7-7-7--5-5-5-5--5-5-5-5--7-7-7-7-----------------------
E|-5-5-5-5--3-3-3-3-----------5-5-5-5-----------------------

BREAKDOWN
e|----------------------------------------------------------
B|----------------------------------------------------------
G|-----------7>>>-------------------------------------------
D|-7>>>-5>>>-7>>>-7>>>-------------------------------------- PART 1
A|-7>>>-5>>>-5>>>-7>>>--------------------------------------
E|-5>>>-3>>>------5>>>--------------------------------------

e|----------------------------------------------------------
B|----------------------------------------------------------
G|-------------7--------------------------------------------
D|-7-----5-----7(X8)-7-------------------------------------- PART 2 PLAY TWO TIMES
A|-7(X8)-5(X8)-5-----7(X8)----------------------------------
E|-5-----3-----------5--------------------------------------
<--------PM----------->
REPEAT PART 1 X2 THEN PART 2(NOT PM THIS TIME)X2
MAIN RIFF X4
VERSE 2 X4
MAIN RIFF X6
END ON
e|---------
B|---------
G|---------
D|--7------
A|--7------
E|--5------
Im postive its 100%,cause i watched Brett play it,if you have any questions
please rate this and feel free to make any corrections
            
Tabs too difficult? Try these video lessons and learn fast.


comments powered by Disqus
↑ Back to top | Tablatures and chords are parodies/interpretations of the original songs. You may use it for private study, scholarship, research or language learning purposes only