» » »

Laredo Bass tabs (ver.1)

Artists:  A B C D E F G H I J K L M N O P Q R S T U V W X Y Z # 

Laredo Bass tabs (ver.1)

Band Of Horses
Rating:
0/5 (0 votes)

Tabs too difficult? Try these video lessons and learn fast.
                Laredo Bass Tab®

Starts at 0.07

G|-----------------------------------------------------|
D|-----------------------------------------------------|
A|--1(x4)-------1(x4)--------3(x4)--------3(x4)--------|
E|---------1(x2)-------3(x2)--------3(x2)--------------|

G|-------------------------------------------------------------|
D|-------------------------------------------------------------|
A|--------1(x4)--------1(x4)---------3(x4)--------3(x4)--------|
E|--1(x2)--------1(x2)---------3(x2)---------3(x2)-------------|

G|--------------------------------------------------------------|
D|--------------------------------------------------------------|
A|--------1(x4)--------1(x4)---------3(x4)--------3(x12)--------|
E|--1(x2)--------1(x2)---------3(x2)--------3(x2)---------------|

x2
G|----------------------------------------|
D|----------------------------------------|
A|--------6----6----5---5---3(x10)--------|
E|--3/7----7----7----6---6----------------|

G|--------------------------------------------------------|
D|--------------------------------------------------------|
A|----1(x4)-------1(x4)--------3(x4)---------3(x4)--------|
E|--3--------1(x2)-------3(x2)---------3(x2)--------------|

x2
G|-------------------------------------------------------------|
D|-------------------------------------------------------------|
A|--------1(x4)--------1(x4)---------3(x4)--------3(x4)--------|
E|--1(x2)--------1(x2)--------3(x2)---------3(x2)--------------|

G|--------------------------------------------------------------|
D|--------------------------------------------------------------|
A|--------1(x4)-------1(x4)---------3(x4)---------3(x12)--------|
E|--1(x2)-------1(x2)--------3(x2)---------3(x2)----------------|

x2
G|----------------------------------------|
D|----------------------------------------|
A|--------6----6----5---5---3(x10)--------|
E|--3/7----7----7----6---6----------------|

G|-------------------------------------------------------------------------|
D|-------------------------------------------------------------------------|
A|----1----1(x2)--1(x2)--1(x2)--------3---3(x2)---------3---3(x2) ---------|
E|--3----1-------1-------1-------3(x2)---3--------3(x2)----3---------------|

G|-------------------------------------------------------------------------|
D|-------------------------------------------------------------------------|
A|----1----1(x2)--1(x2)--1(x2)--------3---3(x2)---------3---3(x10) --------|
E|--3----1-------1-------1-------3(x2)---3--------3(x2)----3---------------|

G|----------------------------------------|
D|----------------------------------------|
A|--------6----6----5---5---3(x10)--------|
E|--3/7----7----7----6---6----------------|

G|---------------------------------------------|
D|---------------------------------------------|
A|--------6----6----5---5---3(x10)----1--------|
E|--3/7----7----7----6---6---------3-----------|
            
Tabs too difficult? Try these video lessons and learn fast.




comments powered by Disqus
↑ Back to top | Tablatures and chords are parodies/interpretations of the original songs. You may use it for private study, scholarship, research or language learning purposes only