» » »

Funeral Bass tabs (ver.3)

Artists:  A B C D E F G H I J K L M N O P Q R S T U V W X Y Z # 

Funeral Bass tabs (ver.3)

Band Of Horses
Rating:
0/5 (0 votes)

Tabs too difficult? Try these video lessons and learn fast.
                                               The Funeral                                 
                                                             Band of Horses
Bass (not really, made-up version mostly based on guitar)

       Q     Q    Q     Q        Q     Q     Q     Q     
G||---------------8----------|--------------15----------|
D||*--------10---------10----|--------17----------17----|
A||*--11---------------------|--18----------------------|
E||--------------------------|--------------------------|


   Q     Q     Q     Q        Q     Q     Q     Q     
--------------10----------|--------------12----------|
--------12----------12----|--------13----------13----|
--13----------------------|--15----------------------|
--------------------------|--------------------------|


   Q     Q     Q     Q     8x    E   E   E   E   E   E   E   E   
--------------12-----------||---17--17--17--17--17--17--17--17--|
--------13----------13----*||*--18--18--18--18--18--18--18--18--|
--15----------------------*||*----------------------------------|
---------------------------||-----------------------------------|


   E   E   E   E   E   E   E   E     E  E  E  E  E  E  E  E   
--12--12--12--12--12--12--12--12--|--7--7--7--7--7--7--7--7--|
--13--13--13--13--13--13--13--13--|--8--8--8--8--8--8--8--8--|
----------------------------------|--------------------------|
----------------------------------|--------------------------|


   E   E   E   E   E   E   E   E      E   E   E   E   E   E   E   E   3x
---8---8---8---8---8---8---8---8--|---8---8---8---8---8---8---8---8---||
--10--10--10--10--10--10--10--10--|--10--10--10--10--10--10--10--10--*||
----------------------------------|----------------------------------*||
----------------------------------|-----------------------------------||


   E   E   E   E   E   E   E   E      E   E   E   E   E   E   E   E   
--17--17--17--17--17--17--17--17--|--12--12--12--12--12--12--12--12--|
--18--18--18--18--18--18--18--18--|--13--13--13--13--13--13--13--13--|
----------------------------------|----------------------------------|
----------------------------------|----------------------------------|


  E  E  E  E  E  E  E  E      Q     Q     Q     Q     
--7--7--7--7--7--7--7--7--|--------------12----------|
--8--8--8--8--8--8--8--8--|--------13----------13----|
--------------------------|--15----------------------|
--------------------------|--------------------------|


   Q     Q     Q     Q         E  E  E  E  E  E  E  E   
--------------12----------||---7--7--7--7--7--7--7--7--|
--------13----------13----||*--8--8--8--8--8--8--8--8--|
--15----------------------||*--------------------------|
--------------------------||---------------------------|


  E  E  E  E  E  E  E  E      H         Q     Q       H        Q    E  E   
--7--7--7--7--7--7--7--7--|--12--------12----12----|--5--------5----5--5--|
--8--8--8--8--8--8--8--8--|--13--------13----13----|--6--------6----6--6--|
--------------------------|------------------------|----------------------|
--------------------------|------------------------|----------------------|


  E  E  Q    E  Q    E     E  E  Q    E  Q    E   3x
--5--5--5----5--5----5--|--5--5--5----5--5----5---||
--6--6--6----6--6----6--|--6--6--6----6--6----6--*||
------------------------|------------------------*||
------------------------|-------------------------||


  E  E  E  E  E  E  E  E     E  E  E  E  E  E  E  E   
--7--7--7--7--7--7--7--7--|--7--7--7--7--7--7--7--7--|
--8--8--8--8--8--8--8--8--|--8--8--8--8--8--8--8--8--|
--------------------------|--------------------------|
--------------------------|--------------------------|


   H         Q     Q       H        Q    E  E     E  E  Q    E  Q    E   
--12--------12----12----|--5--------5----5--5--|--5--5--5----5--5----5--|
--13--------13----13----|--6--------6----6--6--|--6--6--6----6--6----6--|
------------------------|----------------------|------------------------|
------------------------|----------------------|------------------------|


  W                    W                      Q     Q    Q     Q     
--5----------------|---L----------------||---------------8----------|
--6----------------|---L----------------||*--------10---------10----|
-------------------|--------------------||*--11---------------------|
-------------------|--------------------||--------------------------|


   Q     Q     Q     Q        Q     Q     Q     Q     
--------------15----------|--------------10----------|
--------17----------17----|--------12----------12----|
--18----------------------|--13----------------------|
--------------------------|--------------------------|


   Q     Q     Q     Q        Q     Q     Q     Q       
--------------12----------|--------------12-----------||
--------13----------13----|--------13----------13----*||
--15----------------------|--15----------------------*||
--------------------------|---------------------------||


    E   E   E   E   E   E   E   E      E   E   E   E   E   E   E   E   
---17--17--17--17--17--17--17--17--|--12--12--12--12--12--12--12--12--|
*--18--18--18--18--18--18--18--18--|--13--13--13--13--13--13--13--13--|
*----------------------------------|----------------------------------|
-----------------------------------|----------------------------------|


  E  E  E  E  E  E  E  E      E   E   E   E   E   E   E   E   
--7--7--7--7--7--7--7--7--|---8---8---8---8---8---8---8---8--|
--8--8--8--8--8--8--8--8--|--10--10--10--10--10--10--10--10--|
--------------------------|----------------------------------|
--------------------------|----------------------------------|


   E   E   E   E   E   E   E   E   3x   E   E   E   E   E   E   E   E   
---8---8---8---8---8---8---8---8---||--17--17--17--17--17--17--17--17--|
--10--10--10--10--10--10--10--10--*||--18--18--18--18--18--18--18--18--|
----------------------------------*||----------------------------------|
-----------------------------------||----------------------------------|


   E   E   E   E   E   E   E   E     E  E  E  E  E  E  E  E   
--12--12--12--12--12--12--12--12--|--7--7--7--7--7--7--7--7--|
--13--13--13--13--13--13--13--13--|--8--8--8--8--8--8--8--8--|
----------------------------------|--------------------------|
----------------------------------|--------------------------|


   Q     Q     Q     Q        Q     Q     Q     Q     
--------------12----------|--------------12----------|
--------13----------13----|--------13----------13----|
--15----------------------|--15----------------------|
--------------------------|--------------------------|


    E  E  E  E  E  E  E  E     E  E  E  E  E  E  E  E   
|---7--7--7--7--7--7--7--7--|--7--7--7--7--7--7--7--7--|
|*--8--8--8--8--8--8--8--8--|--8--8--8--8--8--8--8--8--|
|*--------------------------|--------------------------|
|---------------------------|--------------------------|


   H         Q     Q       H        Q    E  E     E  E  Q    E  Q    E   
--12--------12----12----|--5--------5----5--5--|--5--5--5----5--5----5--|
--13--------13----13----|--6--------6----6--6--|--6--6--6----6--6----6--|
------------------------|----------------------|------------------------|
------------------------|----------------------|------------------------|


  E  E  Q    E  Q    E   3x  E  E  E  E  E  E  E  E   
--5--5--5----5--5----5---||--7--7--7--7--7--7--7--7--|
--6--6--6----6--6----6--*||--8--8--8--8--8--8--8--8--|
------------------------*||--------------------------|
-------------------------||--------------------------|


  E  E  E  E  E  E  E  E      H         Q     Q       H        Q    E  E   
--7--7--7--7--7--7--7--7--|--12--------12----12----|--5--------5----5--5--|
--8--8--8--8--8--8--8--8--|--13--------13----13----|--6--------6----6--6--|
--------------------------|------------------------|----------------------|
--------------------------|------------------------|----------------------|


  E  E  Q    E  Q    E     W                    W                 
--5--5--5----5--5----5--|--5----------------|---L----------------|
--6--6--6----6--6----6--|--6----------------|---L----------------|
------------------------|-------------------|--------------------|
------------------------|-------------------|--------------------|


     E   E   E   E   E   E   E   E      E   E   E   E   E   E   E   E   
|---17--17--17--17--17--17--17--17--|--12--12--12--12--12--12--12--12--|
|*--18--18--18--18--18--18--18--18--|--13--13--13--13--13--13--13--13--|
|*----------------------------------|----------------------------------|
|-----------------------------------|----------------------------------|


  E  E  E  E  E  E  E  E      E   E   E   E   E   E   E   E   5x
--7--7--7--7--7--7--7--7--|---8---8---8---8---8---8---8---8---||
--8--8--8--8--8--8--8--8--|--10--10--10--10--10--10--10--10--*||
--------------------------|----------------------------------*||
--------------------------|-----------------------------------||


   W                   W                  
---8----------------|--L----------------||
--10----------------|--L----------------||
--------------------|-------------------||
--------------------|-------------------||




Duration Legend
---------------
W - whole
H - half
Q - quarter
E - 8th
S - 16th
T - 32nd
X - 64th
. - note dotted
|-n-|  - n-tuplets


Tablature Legend
----------------
L - tied note
x - dead note
g - grace note
(n) - ghost note
> - accentuded note
NH - natural harmonic
AH - artificial harmonic
TH - tapped harmonic
SH - semi harmonic
PH - pitch harmonic
h - hammer on
p - pull off
b - bend
br - bendRelease
pb - preBend
pbr - preBendRelease
brb - bendReleaseBend
\n/ - tremolo bar dip
\n - tremolo bar dive
-/n - tremolo bar Release up
/n\ - tremolo bar inverted dip
/n - tremolo bar return
-\n - tremolo bar Release down
S - shift slide
s - legato slide
/ -  slide into from below or out of upwards
\ -  slide into from above or out of downwards
~ - vibrato
W - wide vibrato
tr - trill
TP - tremolo picking
T - tapping
S - slap
P - pop
< - fade in
^ - brush up
v - brush down
            
Tabs too difficult? Try these video lessons and learn fast.




comments powered by Disqus
↑ Back to top | Tablatures and chords are parodies/interpretations of the original songs. You may use it for private study, scholarship, research or language learning purposes only