» » »

Angelburner Tabs (ver.1)

Artists:  A B C D E F G H I J K L M N O P Q R S T U V W X Y Z # 

Angelburner Tabs (ver.1)

Barathrum
Rating:
0/5 (0 votes)

Tabs too difficult? Try these video lessons and learn fast.
                BARATHRUM

BASS 1
G|---------------------------------|
D|---2---3---2---3---2---3---------|
A|-0---1---0---1---0---1-----------|
E|-------------------------3---2---|

GUITAR 1
E|---------------------------------|
B|---------------------------------|
G|-4---5---4---5---4---5-----------|
D|-2---3---2---3---2---3-----------|
A|-------------------------3---2---|
E|---------------------------------|


BASS & GUITAR 2
E|-----------------------------------------------------------|
B|-----------------------------------------------------------|
G|-4--4---4-5-4-5-4--4---4-5-4-5-4--4---4-5-4-5--------------|
D|-2--2-0-2-3-2-3-2--2-0-2-3-2-3-2--2-0-2-3-2-3-5--5-5-5-4---|
A|----------------------------------------------3--3-3-3-2-5-|
E|---------------------------------------------------------3-|



E|--------------------------------------------------|\
B|--------------------4-----------------------------| \                  
G|------4-5-2-----4-5-2-----4-5-2--2-----2-3--------|  \
D|------2-3-0-----2-3-------2-3-0----3-2-----3-2----|  |
A|--------------------------------------------------|  |
E|--------------------------------------------------|
                                                        BASS & GUITAR 3
E|--------------------------------------------------|  
B|--------------------4---------------------*3-4*---|  |
G|------4-5-2-----4-5-2-----4-5-2--2-----2-3--------|  |
D|------2-3-0-----2-3-------2-3-0----3-2------------|  /
A|--------------------------------------------------| /
E|--------------------------------------------------|/
                                 *with 4-string bass
                                  G|-7-8-|


ORDER & LYRICS:
drum intro=20
4 x bass 1=20
4 x bass 1 & guitar 1
    FIRE!
4 x bass 1
    i bring the fire from the hell
    i am a demon warrior
    listen for the doom bell
    it tolls for this burning torch

2 x bass & guitar 2
4 x bass & guitar 2
    i bring this torch from the flames
    from the flames of inferno
    i bring the end for the days
    of angels existence
    i hunt those white dressed creatures
    creatures with their white wings
    my own wings are black skin
    and my claws steel

1 x bass 3 (quitar at end parts)
1 x bass & guitar 3
2 x bass & guitar 3
    when i meet the angels of light
    i show no mercy for them
    i tie them with barbed wire
    and then i crucify
    i cut the veins of heaven's creature
    i spill the holy blood
    i am the tormentor of saints
    and judge from hell

2 x bass & quitar 3
4 x bass & guitar 3
    my dark and evil wrath is huge
    i have ripped countless angels
    and i have brought the fuel
    for infernos high flames
    those flames are getting higher
    til they reach those golden gates
    and my deepest desire
    is to destroy all beyond those gates

4 x bass & guitar 1
2 x bass & guitar 2
2 x bass & guitar 2
    lighting up the weather wings
    tearing the burning corps
    and the choir of heaven sings
    no.. no more.......................!


sounds right, but is it?
            
Tabs too difficult? Try these video lessons and learn fast.




comments powered by Disqus
↑ Back to top | Tablatures and chords are parodies/interpretations of the original songs. You may use it for private study, scholarship, research or language learning purposes only