» » »

One Night Bass tabs (ver.1)

Artists:  A B C D E F G H I J K L M N O P Q R S T U V W X Y Z # 

One Night Bass tabs (ver.1)

Barclay James Harvest
Rating:
0/5 (0 votes)

Tabs too difficult? Try these video lessons and learn fast.
                                                          Artist - Barclay James Harvest
                                         ********************************
                                                 Song - One Night
                                                ******************
                                             Album - Live Tapes (1978)
                                            **************************


                                        VERSE 1

[-----------|-----------|-|-------------Took All my money------------------]
[-----------|-----------|X|-----------------------------|------------------]
[------2----|------2-3--|2|--3-2-0----------------------|--0-2-3-3--0-3-3--]
[--3-5---0--|--3-5------|-|---------3-3--3-3--5-5--5-5--|------------------]


[--------------|------------------|--------------|--------------]
[--------------|------------------|--------------|--------------]
[--------------|--0-2-3-3--0-3-3--|--------------|----0-0--0-0--]
[--0-0--3-0-0--|------------------|--0-0--3-0-0--|--3-----------]


[---------------|------------Eyes are now open-|------------------]
[---------------|------------------------------|------------------]
[--5-5-----5-5--|--5-2-0-----------------------|--0-2-3-3--0-3-3--]
[-------5-------|--------3-3--3-3--5-5--5-5-5--|------------------]


[--------------|------------------|--------------|----------------|-----]
[--------------|------------------|--------------|----------------|-----]
[--------------|--0-2-3-3--0-3-3--|--------------|----0-0--0-0-0--|--5--]
[--0-0--3-0-0--|------------------|--0-0--3-0-0--|--3-------------|-----]

                       
                    
[-----------7--s---]
[---s---7-9---9\7--]
[--5\9-------------]
[------------------]


CHORUS    
    Everybody needs
[------------|--------------|-|---------|-----------p-----]
[------------|------s--7-9--|X|---------|-----s--7-9-7----]
[-----3-5-7--|--5--7\9------|2|---3-5-7-|-5--7\9-------9--]
[--5---------|--------------|-|-5-------|-----------------]

 Do you think
[------------------------------------|------------|--------------]
[------------------------------------|------------|--------------]
[-------0-3-3------------3-3--0-3-3--|------------|--3--0-3-3-3--]
[--3-3---------0-0--0-0--------------|--0--3-0-0--|--------------]

                            VERSE 2        CHORUS

[------------|------------||Play VERSE 1-||Play CHORUS-|]
[------------|------------||-Its near----||--Its The---|]
[------------|--3--3-3-3--||-Enough------||---Same-----|]
[--0--3-0-0--|------------||_The Same----||------------|]

Do you think
02:46                                               
[--------------------------------------------------]
[--------------------------------------------------]
[-----0-3-3------------3-3--0-3-3--0-3-3--0-3-0-3--]
[--3---------0-0--0-0------------------------------]


02:57                      03:19
[-----------|-----------|-|---------------------|----------------------]
[-----------|-----------|X|---------------------|----------------------]
[------2----|------2-3--|2|------------3-0-3-3--|------------3--0-3-3--]
[--3-5---0--|--3-5------|-|--0--0-0-0-----------|--0--0-0-0------------]


 VERSE 3        CHORUS

[Play VERSE 1-||Play CHORUS-|]
[-Its near----||--Its The---|]
[--Enough-----||----Same----|]
[-The Same----||------------|]


Do you think
04:29                                               
[--------------------------------------------------]
[--------------------------------------------------]
[-----0-3-3------------3-3--0-3-3--0-3-3--0-3-0-3--]
[--3---------0-0--0-0------------------------------]


GUITAR SOLO
04:39
[-----------------|----------|------------|----------|----------------]
[-----------------|----------|------------|----------|----------------]
[----------3--3-3-|----------|-3--0-3-3-3-|----------|-0-2-3--0-3-0-3-]
[-0--0-0----------|-0--0-0-0-|------------|-0--0-0-0-|----------------]


[----------|---------------|----------|-------------5---------]
[----------|-------2-3-4-5-|----------|---------5-5---5-------]
[----------|-0-2-3---------|----------|-0-2--3----------3-0-2-]
[-0--0-0-0-|---------------|-0--0-2-3-|-----------------------]


[--------------|-------------|-------------|--------------|-----------]
[--------------|-------------|-------------|--------------|-----------]
[------------s-|-3--3-3-3--3-|-------------|-3--3-3-3-0-3-|-----------]
[-0--0-0-0--8\-|-------------|-0--0-0-0--0-|--------------|-0--0-0-0--]


05:20
[----------------|----------|------------2-5-|----------|-----------------]
[----------------|----------|--------5-5-----|----------|-----------------]
[-0-2-3--0-3-3-3-|----------|-0-2-3----------|----------|-0-2-3--0-3-0-3--]
[----------------|-0--0-0-0-|----------------|-0--0-0-0-|-----------------]


[----------|----------5--5-|----------|--------5-5--5-----|-----------]
[----------|--------5--5---|----------|---------------5---|-----------]
[----------|-0-2-3---------|----------|-0-2-3-----------3-|-----------]
[-0--0-0-0-|---------------|-0--0-0-0-|-------------------|-0--0-0-0--]

                                      05:55
[----------|----------|--------------|----------|----------|-----------]
[----------|----------|--------------|----------|----------|-----------]
[-3--0-3-3-|----------|-0-2-3--0-3-3-|----------|-3--0-3-3-|-----------]
[----------|-0--0-0-0-|--------------|-0--0-0-0-|----------|-0--0-0-0--]


[----------|---]
[----------|---]
[-3--0-3-3-|---]
[----------|-3-]
            
Tabs too difficult? Try these video lessons and learn fast.




comments powered by Disqus
↑ Back to top | Tablatures and chords are parodies/interpretations of the original songs. You may use it for private study, scholarship, research or language learning purposes only