» » »

Sweet Little Angel Tabs (ver.1)

Artists:  A B C D E F G H I J K L M N O P Q R S T U V W X Y Z # 

Sweet Little Angel Tabs (ver.1)

B. B. King
Rating:
0/5 (0 votes)

Tabs too difficult? Try these video lessons and learn fast.
                (Live)

B.B. King
"Sweet Little Angel"
Live at the Regal (track 2)
**solo only**

Transcribed and posted by JHale

the song. I don't know if B.B. King played the parts in the same
positions I do, but the notes are 90+% accurate; adjust positions as
desired.

Also, I won't bother to make notation of all vibrato and bends. Listen
to the song for that (you'll have to listen anyway to get the
right feel).

e|-------------------------------------------------------------------|
B|-------------------------------------------12----------------------|
G|---------9h10---------------------9-11-11b----11b~--------9--------|
D|----8-11------11~--------------11---------------------------11~----|
A|-11----------------------------------------------------------------|
E|-------------------------------------------------------------------|

e|------------------------------------------------|
B|----------------------------------12b~[hold]----|
G|----------8h9h10--8/10--13~---------------------|
D|----8-11----------------------------------------|
A|-11---------------------------------------------|
E|------------------------------------------------|

e|-------------------------------------------------------------------|
B|-12------------------------------------12-----9--------------------|
G|----13-119----9-11b[hold&release](11)----11b---9b-----------------|
D|------------11--------------------------------------11--11--8------|
A|-------------------------------------------------------------------|
E|--------------------------------------------[[[[[quarter bends]----|

e|-----------------------------------------------------------|
B|--------------------11---------------------------9---------|
G|------8--9p8-8---------9-------------------8/10------------|
D|-8-11----------11~-------11-11-------8-11------------------|
A|----------------------------------11----------------11~----|
E|-----------------------------------------------------------|

e|-----------------------------------------------------|
B|-11---9------9-----9------------------14----14-14~---|
G|-11b--9------9h10----11------------13----13----------|
D|---------11-------------11---13/15-------------------|
A|-----------------------------------------------------|
E|-----------------------------------------------------|

e|----12-14b-r(14)-12----------12-x--------------|
B|-14-----------------14~---14------14-12-------|
G|-----------------------------------------------|
D|-----------------------------------------------|
A|-----------------------------------------------|
E|-----------------------------------------------|

e|---------11------/13----------------------|
B|------9------11------14--11---------------|
G|-/10-------------------------11-----------|
D|---------------------------------13--13---|
A|------------------------------------------|
E|------------------------------------------|

e|---------------------------------------|
B|-----12-----------14--16p14----16------|
G|-/13----14-/(15)------------15---------|
D|---------------------------------------|
A|---------------------------------------|
E|---------------------------------------|

e|-------------------------------16---------------|
B|-----14--16b-(16)p14--16--14~------14---14~-----|
G|-15---------------------------------------------|
D|------------------------------------------------|
A|------------------------------------------------|
E|------------------------------------------------|
  
Enjoy!
NOTE!! I didn't wrote this tablature.
            
Tabs too difficult? Try these video lessons and learn fast.




comments powered by Disqus
↑ Back to top | Tablatures and chords are parodies/interpretations of the original songs. You may use it for private study, scholarship, research or language learning purposes only