» » »

Ten Long Years Tabs (ver.1)

Artists:  A B C D E F G H I J K L M N O P Q R S T U V W X Y Z # 

Ten Long Years Tabs (ver.1)

B. B. King
Rating:
0/5 (0 votes)

Tabs too difficult? Try these video lessons and learn fast.
                
Tuning: Standard

Solo 1

e|------------4-4------4--------------------------7-4-7-4-7--4h6p4---4--------|
B|---------------4-6b8--4------4------------------7-4-7-4-7--4-----6---4------|
G|--4-6--6b8--------------6b8---6-4---6---4----4------------------------6-4h5-|
D|6---------------------------------6---6---6-6-------------------------------|
A|----------------------------------------------------------------------------|
E|----------------------------------------------------------------------------|


e|-----------------------4----------7h8---7-----4-6--7-4-6---4-6-------------|
B|-------------------4-6---7/9-9-9------4---4-6-----6------6-----------------|
G|---------------4-5---------------------------------------------------4---6-|
D|-6---------------------------------------------------------------4-6---6---|
A|---6-4-2/3-----------------------------------------------------6-----------|
E|---------------------------------------------------------------------------|


e|-----------4--------------------------------------------------4-------4-6--|
B|---------4---4-7-4---4---------------6-4--------------------4---4-7b9------|
G|---4-6b8-----------6---4h5-----------6-4h5---------4h5---6b8---------------|
D|-6-------------------------6---------------6---4-6-----6-------------------|
A|-----------------------------6-4-2/3---------6-----------------------------|
E|---------------------------------------------------------------------------|

e|-----4---------------------------------------7-4h6p4---7-4h6p4---7-4h64----|
B|-7/8---7b8-4h6p4---4-------------------4-/9----------6---------6--------6--|
G|-----------------6---6/8\6p4---6---4-6---/10-------------------------------|
D|-----------------------------6---6-----------------------------------------|
A|---------------------------------------------------------------------------|
E|---------------------------------------------------------------------------|

e|-4-------------------------------------------------------------------------|
B|---7/9-9-9-7-4-----------------4-6b-4--4-4---------------------------------|
G|---------------6-4---6---4h5-5--------6------------------------------------|
D|-------------------6---6---------------------------------------------------|
A|---------------------------------------------------------------------------|
E|---------------------------------------------------------------------------|

Solo 2

e|---------------------------------------------------------------------------|
B|-16b18-18br16-16b19-16--pb19br16p14-------------------------14b---12-------|
G|------------------------------------16-13h15p13----13-13-15b--13----13-----|
D|------------------------------------------------15---------------------15--|
A|---------------------------------------------------------------------------|
E|---------------------------------------------------------------------------|

e|---------16----------------------------------------------------------16\---|
B|--------x------------------------------------------14b--12b-14b-12b--------|
G|-13-15-x----15b19br15b17-13-15p13----------13h15-13---13-------------------|
D|----------------------------------15----15---------------------------------|
A|-------------------------------------16------------------------------------|
E|---------------------------------------------------------------------------|

e|------------------------------14--------------------------------------------|
B|---------------------16b19-16----16-14---14----14b16br14----------------14--|b
G|-15b-13----13-15-----------------------16---16-----------13-13----13-16b----|
D|--------15-------15--------------------------------------------15-----------|
A|----------------------------------------------------------------------------|
E|----------------------------------------------------------------------------|

e|---------------------------------------------------------------------------|
B|-14------------------------------------------------------------------------|
G|----16b19-15b-13----13-13----13-15b----------------------------------------|
D|-----------------15-------15--------16-13----13----------------------------|
A|------------------------------------------16-------------------------------|
E|---------------------------------------------------------------------------|
************************************

| /   slide up
| \   slide down
| h   hammer-on
| p   pull-off
| ~   vibrato
| +   harmonic
| x   Mute note
| b   Bend
| pb  Pre-bend
| br  Bend release
| pbr Pre-bend release
| brb Bend release bend
            
Tabs too difficult? Try these video lessons and learn fast.




comments powered by Disqus
↑ Back to top | Tablatures and chords are parodies/interpretations of the original songs. You may use it for private study, scholarship, research or language learning purposes only