» » »

After Midnight Bass tabs (ver.1)

Artists:  A B C D E F G H I J K L M N O P Q R S T U V W X Y Z # 

After Midnight Bass tabs (ver.1)

*Blink 182*
Rating:
0/5 (0 votes)

Tabs too difficult? Try these video lessons and learn fast.
                "These should be correct, I couldn't find a tab that was right.

Intro:
G:--------------------------------------------------------------------------|
D:--------------------------------------------------------------------------|
A:0-00--0-00--0-00--0-00--0-00--5-55----------------------------------------|
E:--------------------------------------------------------------------------|

Verse 1:
G:--------------------------------------------------------------------------|
D:--------------------------------------------------------------------------|
A:5-55--5-55--5-55--5-55----------------------------------------------------|
E:--------------------------------------------------------------------------|
X2

G:--------------------------------------------------------------------------|
D:--------------------------------------------------------------------------|
A:00000000000000005555555555555555------------------------------------------|
E:--------------------------------------------------------------------------|
X2

Chorus:
G:-------------------------------------------------------------------------|
D:-------------------------------------------------------------------------|
A:-000000000000000000000000000000055555555555555555555555555555555---------|
E:-------------------------------------------------------------------------|



Bridge 1

G:-9999999999999999777777777777777--------------------------------------------|
D:-7777777777777777777777777777777--------------------------------------------|
A:--------------------------------55555555555555555555555555555555------------|
e-----------------------------------------------------------------------------|

Bridge 2

G:--------------------------------------------------------------------------|
D:--9--9-9--9--9-9--9--9-9--9--9-9--7--7-7--7--7-7--7--7-7--7--7-7----------|
A:-77-77-7-77-77-7-77-77-7-77-77-7-55-55-5-55-55-5-55-55-5-55-55-5----------|
E:--------------------------------------------------------------------------|


Order:

Intro
Verse X2
Chorus
Intro
Verse X2
Chorus X2
Bridge 1 X2
Bridge 2 X2
Chorus X2
"            
Tabs too difficult? Try these video lessons and learn fast.


comments powered by Disqus
↑ Back to top | Tablatures and chords are parodies/interpretations of the original songs. You may use it for private study, scholarship, research or language learning purposes only