» » »

Apple Shampoo Bass tabs (ver.4)

Artists:  A B C D E F G H I J K L M N O P Q R S T U V W X Y Z # 

Apple Shampoo Bass tabs (ver.4)

*Blink 182*
Rating:
0/5 (0 votes)

Tabs too difficult? Try these video lessons and learn fast.
                Bass Tab
Band: Blink 182

intro
G|---------------------------------------------------------------------
D|---------------------------------------------------------------------
A|-3-3-3-3-3-3-3-3--------------------------3-3-3-3-3-3-3-3-3-3-3-3-3--
E|------------------1-1-1-1-1-1--3-3-3-3-3-----------------------------

     she didn't mean to decieve you believe me but sometimes the hardest
G|---------------------------------------------------------------------
D|---------------------------------------------------------------------
A|---------------------------------------------------------------------
E|-1-1-1--3-3-3-3-3--5-5-5-5-5-5-5-5-5-5-5-5-5-5--1-1-1-1-1-1-1-1-1-1--

  part is conceiving the good intentions that you had now only came to 
G|---------------------------------------------------------------------
D|---------------------------------------------------------------------
A|------------------------------------5-5-5-5-5-8-8-8-8-8-8--3-3-3-3-3-
E|-5-5-5-5-5-5-5-5-5-5-5-5-5-5-5-5-5-----------------------------------

  this and although she saw the mark        the arrow missed  it isn't
G|---------------------------------------------------------------------
D|---------------------------------------------------------------------
A|-3-3-3-3--------------------------3-3-3-3-3-3-3-3-3-3-3-3-3----------
E|---------1-1-1-1-1--3-3-3-3-3-3-3---------------------------1-1-1-1-1

  exciting  reciting  the stories of kind words turned hurting when 
G|---------------------------------------------------------------------
D|---------------------------------------------------------------------
A|---------------------------------------------------------------------
E|-1-1-1--3-3-3-3-3-3--5-5-5-5-5-5-5-5-5-5-5-5-5-5-5---1-1-1-1-1-1-1-1-

  routine gets boring  both getting tired of punk rock clubs and both
G|---------------------------------------------------------------------
D|---------------------------------------------------------------------
A|-----------------------------------------------------5-5-5-8-8-8-8-8-
E|-1-1-1-1-1-1-1-1-1--5-5-5-5-5-5-5-5-5-5-5-5-5-5-5-5------------------

  playing it punk rock bands the start was something good but some good
G|---------------------------------------------------------------------
D|---------------------------------------------------------------------
A|-8-8-8-8-8-8-8---3-3-3-3-------------------------3-3-3-3-------------
E|-------------------------1-1-1-1-3-3-3-3-1-1-1-1---------1-1-1-1-3-3-
 
 things must end 
G|---------------------------------------------------------------------
D|---------------------------------------------------------------------
A|---------------3--3--3--3--3-----------------------------------------
E|-3-3--1-1-1-1-----------------1-1--1-1--1-1--1-1--1-1----3-3--3-3----

          she said we can never survive with such different lives one
G|---------------------------------------------------------------------
D|---------------------------------------------------------------------
A|-----------------------------3-3--3-3--3-3--3------------------------
E|-3-3--3--1-1--1-1--1--1--1-1------------------1-1--1-1--1-1--1--1--1-

  home one out on tour again   we may never come back the strike of a 
G|---------------------------------------------------------------------
D|---------------------------------------------------------------------
A|---------------------------------3-3--3-3--3-3-----------------------
E|-3-3--3-3--3--3--1-1--1-1--1--1-----------------1-1--1-1--1-1-3-3--3-
 
 match the candle burning at both ends
G|---------------------------------------------------------------------
D|---------------------------------------------------------------------
A|------------------3-3--3-3--3-3--------------------------------------
E|-3-3-1-1--1-1-1------------------1-1--1-1--1--1---3-3--3-3--3--1--1--

G|---------------------------------------------------------------------
D|---------------------------------------------------------------------
A|-------------3-3--3-3--3---------------------------------------------
E|-1-1--1-1------------------1-1--1-1--1-1--1-1--1--3-3--3-3--3--3--3--
        
    now she knows too much and i'm too f**ked up it's awkward 
G|---------------------------------------------------------------------
D|---------------------------------------------------------------------
A|------------------3-3--3-3--3-3--3--3--3--3--------------------------
E|-1-1--1-1--1-1--1----------------------------1-1--1--1--1--1-1--1-1--
 
 trying to make my move i'll pretend that i'm fine show up right on 
G|---------------------------------------------------------------------
D|---------------------------------------------------------------------
A|---------------------------------------------------------------------
E|-3-3--3-3--3--3-3--3-1-1--1-1--1-1--1---5-5--5-5--5-5--5-5--5-5--5-5-

  time but i know i'll never be that cool  i never wanted to hold you 
G|---------------------------------------------------------------------
D|---------------------------------------------------------------------
A|---------------------------------------------5-5--5-8-8-8-8-8-8-8----
E|-5-5--5-1-1--1-1--1-1--1--1-1--1-1--5-5--5-5-------------------------
 
 hold you back i just wanted to hold ooonnn but my chance is gone
G|---------------------------------------------------------------------
D|---------------------------------------------------------------------
A|-3-3--3-3-3-3-3------------------------------------------------------
E|----------------3-3--3-3--3-3--3-3-1-1--1-1--1-1--1-1--1-1--1-1-1--1-
      
           i know just where i stand a boy trapped in the body of
G|---------------------------------------------------------------------
D|---------------------------------------------------------------------
A|--------3-3-3-3-3-3-3-3-3-3-3-3-3-3-3-3--5-5-5-5-5-5-5-5-5-5-5-5-5-5-
E|--1-1-1--------------------------------------------------------------
 
 a man and i'll take what your willing to give and i'll teach myself to
G|---------------------------------------------------------------------
D|---------------------------------------------------------------------
A|--------------
E|-1-1-1-1-1-1-1-1-1-1-1-1-1-1-1-3-3-3-3-3-3-3-3-3-3-3-3-5-5-5-7-7-7-7-
 
 live with the walk on part of a background shot from a movie i'm not 
G|---------------------------------------------------------------------
D|---------------------------------------------------------------------
A|-3-3-3-3-3-3-----------------------------------3-3-3-3-3-3-3---------
E|-------------1-1-1-1-1-3-3-3-3-3-3-1-1-1-1-1-1---------------1-1-1-1-
 
in
G|---------------------------------------------------------------------
D|---------------------------------------------------------------------
A|---------------------------------3-3--3-3----------------------------
E|-1-1-1-1-3-3-3-3-3-3-1-1-1-1-1-1----------1-1--1-1--3-3-3-3-1-1-1-1--
        
                                    she's so impooortant
G|---------------------------------------------------------------------
D|---------------------------------------------------------------------
A|-3-3--3-3------------------------------------------------------------
E|-----------1-1-1-1-3-3-3-1-1-1--5-5-5-5-5--5-1-1-1-1-1-1-1-1-1-1-1-1-
 
          i'm so retarrrded     and now i realize i should have kissed
G|---------------------------------------------------------------------
D|---------------------------------------------------------------------
A|------------------------------------------5-5-5-5-5-5-8-8-8-8-8-8-8--
E|-1-1-1-1-5-5-5-5-5-5-5-5-5-5-5-5-5-5-5-5-5---------------------------

  you in l.a. but i drove home all alone as if i had a choice anyway
G----------------------------------------------------------------------
D----------------------------------------------------------------------
A-----------------------5-5-5-5-5-5-5-5-5-5-5-5------------------------
E--3-3-3-3-3-3-3-3-3-3--------------------------1-1-1-1-1-1-1-1-1-1-1--
    
     where are you coming from what are you running from is it so 
G|---------------------------------------------------------------------
D|---------------------------------------------------------------------
A|--------------------------5-5-5-5-5-5-5-5-5-5-5-5-5-5-5--------------
E|-1-1-1--3-3-3-3-3-3-3-3-3-------------------------------1-1-1-1-1-1-1
 
 hard to see and if you're feeling scared remember those times we 
G|---------------------------------------------------------------------
D|---------------------------------------------------------------------
A|---------------------------------------------------------------------
E|-1-1-1-1-1-1-1-1-1-1-1-1-1-1-3-3-3-3-3-3-3-3-3-3-3-3-3-3-3-3-3-3-3-3-
 
 shared you know it meant everything(everything) you know that it meant
G|---------------------------------------------------------------------
D|---------------------------------------------------------------------
A|---------------3-3-3-3-3-3------------------------------3-3-3-3-3----
E|-5-5-7-7-7-7-7------------1-1-1-1-1-3-3-3-3-3-1-1-1-1-1-----------1-1
  
everything to me
G|---------------------------------------------------------------------
D|---------------------------------------------------------------------
A|-----------------------------------------------------3-3-3-3-3-------
E|-1-1-1-1-1-1-1-3-3-3-3-3-3--3-3-3-1--1-1-1-1-1-1-1-1----------1-1-1-1
   
          you know that it meant everything to me
G|---------------------------------------------------------------------
D|---------------------------------------------------------------------
A|---------------------------------3-3-3-3-3-3------------------------3
E|-1-1-1-3-3-3-3-3-3-1-1-1-1-1-1-1------------1-1-1-1-1-1-3-3-3-3-1-1--
            
Tabs too difficult? Try these video lessons and learn fast.




comments powered by Disqus
↑ Back to top | Tablatures and chords are parodies/interpretations of the original songs. You may use it for private study, scholarship, research or language learning purposes only