» » »

Dammit Bass tabs (ver.8)

Artists:  A B C D E F G H I J K L M N O P Q R S T U V W X Y Z # 

Dammit Bass tabs (ver.8)

*Blink 182*
Rating:
0/5 (0 votes)

Tabs too difficult? Try these video lessons and learn fast.
                blink-182 - Dammit


Tuning: Normal (G,D,A,E)

It's a very simple tab. I recommend any bassist start with this.


Main Riff (Play during verses)
G|-------------------------------------------------------------------------|
D|-------------------------------------------------------------------------|
A|--3-3-3-3-3-3-3-----------------0-0-0-0-0-0-0----------------------------|
E|-----------------3-3-3-3-3-3-3------------------1-1-1-1-1-1-1------------|


Interlude/Bridge/Solo (Whatever you want to call it)
G|-------------------------------------------------------------------------|
D|------0-0-2-2-3-3---------0-0-2-2-3-3-5-5-3-2-0--------------------------|
A|-3-3----------------3-3--------------------------------------------------|
E|-------------------------------------------------------------------------|

After this, play the main riff again, then end with the 3rd fret on the A string.
            
Tabs too difficult? Try these video lessons and learn fast.


comments powered by Disqus
↑ Back to top | Tablatures and chords are parodies/interpretations of the original songs. You may use it for private study, scholarship, research or language learning purposes only