» » »

Party Song Tabs (ver.1)

Artists:  A B C D E F G H I J K L M N O P Q R S T U V W X Y Z # 

Party Song Tabs (ver.1)

*Blink 182*
Rating:
0/5 (0 votes)

Tabs too difficult? Try these video lessons and learn fast.
                
This tabs is 100% right (I think).
I saw alot of wrong tabs on this song, however it's a simple
song to figure out. Rock On! Punks not dead.

Verses(hey humanf**kers)
E-----------------------------------------------------------
B-----------------------------------------------------------
G------9--6--9----------------------------------------------
D---9--9--6--9----------------------------------------------
A---9--7--4--7----------------------------------------------
E---7-------------------------------------------------------

In first verse PM! 

Fill before pre-chorus, in the end of the verses

E-----------------------------------------------------------
B-----------------------------------------------------------
G------9--6--9-11-------------------------------------------
D---9--9--6--9-11--9----------------------------------------
A---9--7--4--7-9---9----------------------------------------
E---7--------------7----------------------------------------

pre-chorus
E-----------------------------------------------------------
B-----------------------------------------------------------
G-----------------------------------------------------------
D-----------------------------------------------------------
A---9--7-6----7-6----7-6------------------------------------
E----------7-----7-------7-7-9-777-999-777-999-777-999-777-9

Chorus: same as verses, but a second guitar plays this:
E-----------------------------------------------------------
B-----------------------------------------------------------
G-----------------------------------------------------------
D-----------------------------------------------------------
A---7-6---7-6---repeat--------------------------------------
E-------9-----7---------------------------------------------
            
Tabs too difficult? Try these video lessons and learn fast.


comments powered by Disqus
↑ Back to top | Tablatures and chords are parodies/interpretations of the original songs. You may use it for private study, scholarship, research or language learning purposes only