>
 >
Corrina Corrina 1

Corrina Corrina 1 Guitar Tabs

Bob Dylan - Corrina Corrina 1 chords, tabs, tablatures, lyrics

Guitar lessons | Add/correct | Request | Top 50 tabs Artists:  A B C D E F G H I J K L M N O P Q R S T U V W X Y Z 0-9

Corrina Corrina 1 Guitar Tabs – Bob Dylan

CD, Sheet music, Poster

Do you like Corrina Corrina 1? Share with your friends now
ChordsChords v2TabsTabs v2Tabs v3
Bob Dylan
Corrina, Corrina

Open D Tunning
Capo 3rd fret

Intro:

D |-----0--------0--------0--------0------|----0--------0--------0--------0-------|
A |---------------------------------------|---------------------------------------|
F#|---------------------------------------|-5--------3--------1--------0----------|
D |--5-----5--4-----4--2-----2--0-----0---|-------0--------0--------0--------0----|
A |---------------------------------------|---------------------------------------|
D |--5--------4--------2--------0---------|-5--------4--------2--------0----------|


D |-----0--------0--------0--------0------|----0--------0--------0--------0-------|
A |---------------------------------------|---------------------------------------|
F#|--1--------0--------1--------3---------|-1--------0--------1--------0----------|
D |--------0--------0--------0--------0---|-------0--------0--------0--------0----|
A |--2-----------------2------------------|-------------------2-------------------|
D |-----------0-----------------4---------|-2--------0-----------------0----------|
                                                                       Corrina
Verse:

D |-----0--------0--------0--------0------|----5---------7--------5--------4------|
A |---------------------------------------|---------------------------------------|
F#|--1--------0--------1--------0---------|-5-------5/7--------5--------3---------|
D |--------0--------0--------0--------0---|-------0---------0--------0--------0---|
A |--2-----------------2------------------|---------------------------------------|
D |-----------0-----------------0---------|-5-------5/7--------5--------0---------|
   Corrina                          Gal Where  you've been   so       long

D |-----5--------4----------5--------4----|----2--------0--------0--------0-------|
A |---------------------------------------|---------------------------------------|
F#|3/5-----5--3--------3/5-----5--3-------|-1--------0--------1--------0----------|
D |-----------------0-------------------0-|-------0--------0--------0--------0----|
A |---------------------------------------|-------------------2-------------------|
D |--------5--0----------------5--0-------|-2--------0-----------------0----------|
 
D |------5--------5--------5--------5-----|----5---------7--------5--------4------|
A |---------------------------------------|---------------------------------------|
F#|-3/5--------5--------5--------5--------|-5-------5/7--------5--------3---------|
D |---------0--------0--------0--------0--|-------0---------0--------0--------0---|
A |---------------------------------------|---------------------------------------|
D |-3/5--------0--------5--------0--------|-5-------5/7--------5--------0---------|
   Corrina,    Corrina              Gal Where  you've been   so       long

D |-----5--------4----------5--------4----|------7--------7--------7--------------|
A |---------------------------------------|---------------------------------------|
F#|3/5-----5--3--------3/5-----5--3-------|-3/7--------7--------7--------7--6--5--|
D |-----------------0-------------------0-|---------0--------0--------0-----------|
A |---------------------------------------|---------------------------------------|
D |--------5--0----------------5--0-------|-3/7--------7--------7--------7--6--5--|
                                 I've been worr'in' bout you, baby

D |----5----------7--------5--------4-----|-----5--------4----------5--------4----|
A |---------------------------------------|---------------------------------------|
F#|-5--------5/7--------5--------3--------|3/5-----5--3--------3/5-----5---3------|
D |-------0----------0--------0--------0--|-----------------0-------------------0-|
A |---------------------------------------|---------------------------------------|
D |-5--------5/7--------5--------0--------|--------5--0----------------5--0-------|
   Baby, please come Home

D |----2--------0--------0--------0-----|
A |-------------------------------------|
F#|-1--------0--------1--------0--------|
D |-------0--------0--------0--------0--|
A |-------------------2-----------------|
D |-2--------0-----------------0--------|

Corrina, Corrina
Gal, where you been so long?
Corrina, Corrina
Gal, where you been so long?
I been worr'in' 'bout you, baby
Baby, please come home

I got a bird that whistles
I got a bird that sings
I got a bird that whistles
I got a bird that sings
But I ain' a-got Corrina
Life don't mean a thing

Corrina, Corrina
Gal, you're on my mind
Corrina, Corrina
Gal, you're on my mind
I'm a-thinkin' 'bout you, baby
I just can't keep from crying.





Comments


Popular Bob Dylan tabs & chords
2020 Vision Chords
I Dreamed I Saw St Augustine Chords
I Shall Be Free Chords
Knocking On Heavens Door 3 Chords
Make You Feel My Love 2 Chords
Mr Bojangles Chords
Solid Rock Chords
House Of The Rising Sun 1 Tabs
Baby Let Me Follow You Down Ukulele
Girl Of The North Country Ukulele


Song lyrics



↑ Back to top | Tablatures and chords are parodies/interpretations of the original songs. You may use it for private study, scholarship, research or language learning purposes only
© 2014 AZChords.com Contact us | Privacy policy | DMCA | Add/correct tabs | Request tabs | Top 50 tabs