» » »

Tweedle Dum And Tweedle Dee Bass tabs (ver.1)

Artists:  A B C D E F G H I J K L M N O P Q R S T U V W X Y Z # 

Tweedle Dum And Tweedle Dee Bass tabs (ver.1)

Bob Dylan
Rating:
0/5 (0 votes)

Tabs too difficult? Try these video lessons and learn fast.
                Bob Dylan - Tweedle Dee and Tweedle Dum


Standard tuning

Bass stars :06 or :07 in

Part 1
G|-------------------|
D|-------------------|
A|---2-----2-----0---|
E|------2-----2------|

:23 Part 2
G|--------------------|
D|------------0-1-2---|
A|---2-----2----------|
E|------2-------------|

:25 Part 3
G|---------------------------------------------------|
D|---2-----2-----0---2-----2-----0---2-----2--2--0---|
A|------2-----2---------2-----2---------2------------|
E|---------------------------------------------------|


G|-----------------------------------|
D|-----------------------------0-1-2-|
A|---2-----2-----0----2-----2--------|
E|------2-----2----------2-----------|

 Part 2
G|------------------|
D|------------0-1-2-|
A|---2-----2--------|
E|------2-----------|

 Part 3
G|-------------------------------------------------|
D|---2-----2-----0---2-----2-----0---2-----2--2--0-|
A|------2-----2---------2-----2---------2----------|
E|-------------------------------------------------|

it just keeps goin like that
            
Tabs too difficult? Try these video lessons and learn fast.


comments powered by Disqus
↑ Back to top | Tablatures and chords are parodies/interpretations of the original songs. You may use it for private study, scholarship, research or language learning purposes only