» » »

Put It On Bass tabs (ver.2)

Artists:  A B C D E F G H I J K L M N O P Q R S T U V W X Y Z # 

Put It On Bass tabs (ver.2)

Bob Marley
Rating:
0/5 (0 votes)
Tabs too difficult? Try these video lessons and learn fast.
                Artist - Bob Marley & the Wailers
Title - Put it On
Album - Burnin'
Bass Tab


intro (7) = let note ring
G|--------------------|--------------------|
D|--------------------|--------------------|
A|-------5-5--4-4-----|-------5-5--4-4-----|
E|--5-5-----------(7)-|--5-5-----------(7)-|


chorus/verse
this riff, first time only
G|----------------------------------|
D|--------------------7-7----77-----|
A|-------5-5--7-7--779---9-7---7----|
E|--5-5--------------------------5--|

this riff repeat thru out with slight improv.
G|-----------------------------|
D|---------------7-7----77-----|
A|--5-5--7-7--779---9-7---7----|
E|--------------------------5--|
            
Tabs too difficult? Try these video lessons and learn fast.


comments powered by Disqus
↑ Back to top | Tablatures and chords are parodies/interpretations of the original songs. You may use it for private study, scholarship, research or language learning purposes only