» » »

Rastaman Live Up Bass tabs (ver.2)

Artists:  A B C D E F G H I J K L M N O P Q R S T U V W X Y Z # 

Rastaman Live Up Bass tabs (ver.2)

Bob Marley
Rating:
0/5 (0 votes)

Tabs too difficult? Try these video lessons and learn fast.
                 Title - Rastaman Live Up!
 Artist - Bob Marley & the Wailers
 Album - Confrontation


 chorus                  C
G|----------------------------------------------------|
D|---10--10------10,10,10------10--10------10,10,10---|
A|-10------10--10--------10--10------10--10--------10-|
E|----------------------------------------------------|

 chorus ctd. D       G
G|-------------------------------------------|
D|-------------------------------------------|
A|--8--8----8,8,8-----10--10------10,10,10---|
E|-8----8--8-----8--10------10--10--------10-|

 verse D
G|---------------------------------------|
D|-8h10-----8h10------8h10-----8h10------|
A|---------------------------------------|
E|------888------8888------888------8888-|

 verse ctd.
G|-------------------------------------------|
D|-------------------------------------------|
A|--8--8----8,8,8-----10--10------10,10,10---|
E|-8----8--8-----8--10------10--10--------10-|


 repeat verse, chorus thro out with very slight variations.
 listen for the mistake right near the end.
            
Tabs too difficult? Try these video lessons and learn fast.




comments powered by Disqus
↑ Back to top | Tablatures and chords are parodies/interpretations of the original songs. You may use it for private study, scholarship, research or language learning purposes only