» » »

Three Little Birds Bass tabs (ver.2)

Artists:  A B C D E F G H I J K L M N O P Q R S T U V W X Y Z # 

Three Little Birds Bass tabs (ver.2)

Bob Marley
Rating:
0/5 (0 votes)

Tabs too difficult? Try these video lessons and learn fast.
                Bob Marley, Three Little Birds Bass Tab


Intro

-------------------------------------|
------------------------7---7--------|
---------7---7--------9---9----------| x2
--5-5-5----9----55-55----------9-----|

----------------------------------------------------------|
---------------------------------------7---7--------------|
---------7---7----------7---7---5-5-5----9----------7---7-|
--5-5-5----9-----55-55----9-------------------5-5-5---9---|

----------------------------------------------------------------|
------------------------------------------7---7-----------------|
---------7---7----------7---7---5-5-5---9---9-------------7---7-|
--55-55----9-----55-55----9---------------------9---5-5-5---9---|

Verse

-----------------------------------------------------------------|
---------------------------------------------------7---7---------|
--------------77-77--7---7--------------55-555---9---9-----------|
--55-55-55-55----------9----55-55-55-55------------------9-------|

------------------------------------------------|
------------------------------------------------|
--------------77-77-77-77-6-5-------------------|
--55-55-55-55-----------------5-5-5-77-6-5--0-2-|


Chorus

-----------------------------------------------------------------|
------------------------------------------7---7------------------|
---------7---7----------7---7---5-5-5---9---9-------------7---7--| x2
--55-55----9-----55-55----9---------------------9---5-5-5---9----|


Verse 2

-----------------------------------------------------------------|
---------------------------------------------------7---7---------|
--------------77-77--7---7--------------55-555---9---9-----------|
--55-55-55-55----------9----55-55-55-55------------------9-------|

--------------------------------------------------|
--------------------------------------------------|
--------------77-77-77-77-6-5---------------------|
--55-55-55-55-----------------5-5-5-77-6-5--0-2-4-|

Chorus / Ending

----------------------------------------------------------------|
------------------------------------------7---7-----------------|
---------7---7----------7---7---5-5-5---9---9-------------7---7-|
--55-55----9-----55-55----9---------------------9---5-5-5---9---|

----------------------------------------------------------------|
------------------------------------------7---7-----------------|
---------7---7----------7---7---5-5-5---9---9-------------7---7-|
--5-5-5----9-----5-5-5----9---------------------9---5-5-5---9---|


-----------------------------------------------------------------|
------------------------------------------7---7------------------|
---------7---7----------7---7---5-5-5---9---9-------------7---7--| x3
--55-55----9-----55-55----9---------------------9---5-5-5---9----|

----------------------------------------------------|
------------------------------------------7---7-----|
---------7---7----------7---7---5-5-5---9---9-------|
--55-55----9-----55-55----9---------------------9-5-|
            
Tabs too difficult? Try these video lessons and learn fast.




comments powered by Disqus
↑ Back to top | Tablatures and chords are parodies/interpretations of the original songs. You may use it for private study, scholarship, research or language learning purposes only