» » »

Keep The Faith Tabs (ver.3)

Artists:  A B C D E F G H I J K L M N O P Q R S T U V W X Y Z # 

Keep The Faith Tabs (ver.3)

Bon Jovi
Rating:
0/5 (0 votes)
Tabs too difficult? Try these video lessons and learn fast.
                (Live)
This was from Tokyo 2008.

Key

-3-3-3-3-6-3-3-6-3-3-6--------------------------------|
-3-3-3-3-6-3-3-6-3-3-6--------------------------------|
------------------------5b-3---3-5v--3-5--------------| (trill this and whammy slightly
-----------------------------5------------------------|
------------------------------------------------------|
------------------------------------------------------|

---------------------------------3-6-3-5-3-6-3-5-3-6---|(repeat as needed)
-----------------------------3-6-----------------------|
-3w---0------------------3-5---------------------------|
--------0------------3-5-------------------------------|
---------------3-4-5-----------------------------------|
-----------3-6-----------------------------------------|

Tremolo pick this part while palm muting.

-8b-6-------6----------------------15-----15-15--------15-----15-15---------|
------868-----------15-18b------15----18b-----------15----18b------------15-|
----------------/17---------17b-----------------17b------------------17b----|
----------------------------------------------------------------------------|
----------------------------------------------------------------------------|
----------------------------------------------------------------------------|

-15------15-15---------15------15-15--18b-18--------|
-----18b------------15-----18b---------------15-18--|(trill and whammy lightly)
----------------17b---------------------------------|
----------------------------------------------------|
----------------------------------------------------|
----------------------------------------------------|

---------------------------------------------|
-18b-15-18b----------------------------------|
-------------5h-(dive bomb)------------------|
---------------------------------------------|
---------------------------------------------|
---------------------------------------------|


Wow, that was a lot work, hope that didn't confuse you, if you wathc (or lsiten) to that
live from that show it should match up pretty well.


Outro

--------------------------------15----------15-15----------|
-----------------------------------18-15-18-------18-15----|
-12----------12-12----------12--------------------------0--|w
----15-12-15-------15-12-15--------------------------------|
-----------------------------------------------------------|
-----------------------------------------------------------|

-15-18-15-18--------------------------------------------------|
-15-18-18-15-(repeat as needed)-------------------------------|
---------------------------------17b-15----15-----------------|
----------------------------------------17----17-17-----------|
--------------------------------------------------------------|
--------------------------------------------------------------|

Repeat the above lick twice

---------------------------------------------------------------------------|
---------------------------------------------------------------------------|
-2b-2b-2b-2b---------------------------------------------------15----15-17-|
-------------3-5(trill)----------------------------15----15-17----17-------|
-------------------------------15-16-17---15-16-17----17-------------------|
-------------------------15-18----------18---------------------------------|

--------15-----15-15--------15----15-15---------15------15-15---------15-|
-----15----18b-----------15----18b-----------15-----18b------------15----|
-17b-----------------17b-----------------17b-------------------17b-------|
-------------------------------------------------------------------------|
-------------------------------------------------------------------------|
-------------------------------------------------------------------------|

-18b--15-18-15-17 (repeat as needed)--------------------------------------|
------------------------------------------15-18----18-(repeat as needed)--|
---------------------------------------17-------17------------------------|
--------------------------------------------------------------------------|
--------------------------------------------------------------------------|
--------------------------------------------------------------------------|

-18b-18--15------------------------------------------3----------|
------------18-15-----15-----------------------------3-3-5-8-10-|
------------------17b----17-15-----------------------0-3-5-8-10-|
-------------------------------17-15-----------------0-3-5-8-10-|
-------------------------------------17-16-15--------2-1-3-6-8--|
----------------------------------------------18-15--3----------|


----------------------------------------------------------3--|
----15-17-8-10--12----------------------------------------3--|
-16-15-17-8-10--12---2b-----------------------------------0--|
-17-15-17-8-10--12-------3-5-3-5-3-5-3-5-3-5-3-5-3-5------0--|
-17-13-15-6-8---10----------------------------------------2--|
-15-------------------------------------------------------3--|


Sorry for having to  put stuff like, "repeat as needed" but he really does use a lick or
so many time I didn't want to bother counting then tabbing it.  The last part before
of the chords I am not so sure about, if you can do better that is great. It took me 
an hour and a half just tabbing it. I really do honestly hope you like this tab, since no
really bothers to do live tabs I decided I would. By the way. you tune one half-step 
Next tab will probably be Lost Highway solo, so look out for that.
            
Tabs too difficult? Try these video lessons and learn fast.


comments powered by Disqus
↑ Back to top | Tablatures and chords are parodies/interpretations of the original songs. You may use it for private study, scholarship, research or language learning purposes only