» » »

Till We Aint Strangers Anymore Tabs (ver.1)

Artists:  A B C D E F G H I J K L M N O P Q R S T U V W X Y Z # 

Till We Aint Strangers Anymore Tabs (ver.1)

Bon Jovi
Rating:
0/5 (0 votes)

Tabs too difficult? Try these video lessons and learn fast.
                Hey guys, this is an amazing song and there aint no tabs out there! So here it is!

s - slide
b - bend
br - bend release
pb - pre-bend
pbr - pre-bend release

Main Solo
|---------------------------------151514141212------------------------------|
|----------------------12---------------------1515131312121010-10h12p10--10-|
|-12s14--12--121212-14--12--12\0---------------------------------------12---|
|---------------------------12\0--------------------------------------------|
|---------------------------------------------------------------------------|
|---------------------------------------------------------------------------|

|------15--15--17b---pb17pb17pbr17----16s17----12br--|
|--------12--15---------------------17-----17--------|
|-12s14----------------------------------------------|
|----------------------------------------------------|
|----------------------------------------------------|
|----------------------------------------------------|


End Solo
|------------------------------------------------------------|
|----------------------12-------------8877-------------------|
|-12s14--12--121212-14---12---7-7-9-------9977-7h9p7h9--7br--|
|------------------------------------------------------------|
|------------------------------------------------------------|
|------------------------------------------------------------|

|-------------------151514141212-----------------------------------|
|--------------12---------------1515131312121010-10h12p10--10--12--|
|----121212-14--12---------------------------------------12------12|
|------------------------------------------------------------------|
|------------------------------------------------------------------|
|------------------------------------------------------------------|

Enjoy!

Daniel
            
Tabs too difficult? Try these video lessons and learn fast.


comments powered by Disqus
↑ Back to top | Tablatures and chords are parodies/interpretations of the original songs. You may use it for private study, scholarship, research or language learning purposes only