» » »

Great Escape Tabs (ver.1)

Artists:  A B C D E F G H I J K L M N O P Q R S T U V W X Y Z # 

Great Escape Tabs (ver.1)

Boys Like Girls
Rating:
4/5 (29 votes)

Tabs too difficult? Try these video lessons and learn fast.
                		The Great Escape (AOL Acoustic Version) – Boys Like Girls
Tuning: Open C

This is just the tab of Martin’s part (Rhythm). I’m just gonna give you the chords, the 
pattern isn’t hard at all or you could just play it how you want =]

Intro / Verse (Play it once for the intro, then once for the start of the verse)
C|-0------0--------------------------------------------------------------------|
G|-0------0--------------------------------------------------------------------|
E|-13-----12-------------------------------------------------------------------|
C|-0------0--------------------------------------------------------------------|
G|-10-----9--------------------------------------------------------------------|x2
C|-x------x--------------------------------------------------------------------|

Verse
C|-0---0---0---0-------0----------------------------------------------------------|
G|-0---0---0---0-------5----------------------------------------------------------|
E|-x---x---0---8-------0-Strum this once------------------------------------------|
C|-9---5---0---7-------0----------------------------------------------------------|
G|-9---5---0---7-------5----------------------------------------------------------|
C|-9---5---0---7-------0----------------------------------------------------------|

Chorus
C|-0---0---0---0-----------------------------------------------------------------|
G|-0---0---0---0-----------------------------------------------------------------|
E|-x---x---0---8-----------------------------------------------------------------|
C|-9---5---0---7-----------------------------------------------------------------|
G|-9---5---0---7-----------------------------------------------------------------|x2
C|-9---5---0---7-----------------------------------------------------------------|

Chorus (Continued)
C|-0---0---0---0-----------------------------------------------------------------|
G|-0---0---0---0-----------------------------------------------------------------|
E|-3---x---x---8-----------------------------------------------------------------|
C|-2---4---5---7-----------------------------------------------------------------|
G|-2---4---5---7-----------------------------------------------------------------|
C|-2---4---5---7-----------------------------------------------------------------|

Intro / Verse
Verse
Chorus

Bridge (Strum these once each)
C|-0---0---0---0-----------------------------------------------------------------|
G|-0---0---0---0-----------------------------------------------------------------|
E|-x---0---3---8-----------------------------------------------------------------|
C|-5---0---2---7-----------------------------------------------------------------|
G|-5---0---2---7-----------------------------------------------------------------|
C|-5---0---2---7-----------------------------------------------------------------|

Solo (you just play the chorus on top of the solo)
Quiet Chorus (Just strum these once each)
C|-0---0---0---0-----------------------------------------------------------------|
G|-0---0---0---0-----------------------------------------------------------------|
E|-x---x---0---8-----------------------------------------------------------------|
C|-9---5---0---7-----------------------------------------------------------------|
G|-9---5---0---7-----------------------------------------------------------------|x2
C|-9---5---0---7-----------------------------------------------------------------|

(On the last chord start normal strumming again)
Chorus
Intro / Verse (which is the outro as well =P)

At the end if you really want, he plays natural harmonics on the 12th fret I think which 
rather cool

For some of the chords you can add your ring finger to the G string (lol) on the fret 
the others. For example, 777800. I already put it on some because it sounds better like 
but you can just mess about with it and see what sounds best to you =]

BLG RULE!!! Peace out

| /  slide up
| \  slide down
| h  hammer-on
| p  pull-off
| ~  vibrato
| +  harmonic
| x  Mute note
            
Tabs too difficult? Try these video lessons and learn fast.




comments powered by Disqus
↑ Back to top | Tablatures and chords are parodies/interpretations of the original songs. You may use it for private study, scholarship, research or language learning purposes only