» » »

Justice For My Soul Tabs (ver.1)

Artists:  A B C D E F G H I J K L M N O P Q R S T U V W X Y Z # 

Justice For My Soul Tabs (ver.1)

Bracken Cell
Rating:
0/5 (0 votes)

Tabs too difficult? Try these video lessons and learn fast.
                e-------------------------------------------------------
B-------------------------------------------------------
G-------------------------------------------------------
D-------------------------------------------------------
A--7-6—5~--7-6-5~--7-6-5~--7-6-5~-----------------------
E-------------------------------------------------------

e-------------------------------------------------------
B-------------------------------------------------------
G-------------------------------------------------------
D-------------------------------------------------------
A--2-—-----7-6-5---2-----7-6-5---2-----7-6-5---5-—----4-
E--0-0-0-----------0-0-0---------0-0-0---------3-0-0--2-

Ending of Intro:
e-------------------------------------------------------
B-------------------------------------------------------
G-------------------------------------------------------
D-------------------------------------------------------
A--5------4---5------4---5-----4---------2--------------
E--3-0-0--2---3-0-0--2---3-0-0-2---0-2-3---3-2----------

Verse Begin.
e-------------------------------------------------------
B-------------------------------------------------------
G-------------------------------------------------------
D-------------------------------------------------------
A---—---------------------------------------------------
E--0-0-0-0-0-0-0-0-0-0-0-0-0-0-0-0-0-0-0-0-0-0-0-0-0-0-0

e-------------------------------------------------------
B-------------------------------------------------------
G-------------------------------------------------------
D-------------------------------------------------7-6-5-
A--2-—----7-6-5--2------7-6-5--2-----7-6-5--7-6-5-------
E--0-0-0---------0-0-0---------0-0-0--------------------

e-------------------------------------------------------
B-------------------------------------------------------
G-------------------------------------------------------
D----------------------------------------------9-8-7----
A-2--—--7-6-5--2-----7-6-5--2-----7-6-5--9-8-7----------
E-0-0-0--------0-0-0--------0-0-0-----------------------

e-------------------------------------------------------
B-------------------------------------------------------
G-------------------------------------------------------
D-------------------------------------------------------
A---—--------------5------4------------------5-----8----
E-0-0-0-0-0-0-0-0--3--0-0-2--0-0-0-0-0-0-0-0-3-0-0-6----

e-------------------------------------------------------------
B-------------------------------------------------------------
G-------------------------------------------------------------
D-------------------------------------------------------------
A---—--------------5-----4-------------------------2----------
E-0-0-0-0-0-0-0-0--3-0-0-2--0-0-0-0-0-0-0-0--0-2-3---3-2-0----

Repeat. Then play riff below before lyrics kick in.

e---------------------------------------------------------
B---------------------------------------------------------
G---------------------------------------------------------
D---------------------------------------------------------
A---—----2-------------2-------------2-------------2------
E--0-2-3---3-2-0-0-2-3---3-2-0-0-2-3---3-2-0-0-2-3----3**-

Verse:
e-------------------------------------------------------
B-------------------------------------------------------
G-------------------------------------------------------
D-------------------------------------------------------
A---—--------------5------4------------------5-----8----
E-0-0-0-0-0-0-0-0--3--0-0-2--0-0-0-0-0-0-0-0-3-0-0-6----

e-------------------------------------------------------------
B-------------------------------------------------------------
G-------------------------------------------------------------
D-------------------------------------------------------------
A---—--------------5-----4-------------------------2----------
E-0-0-0-0-0-0-0-0--3-0-0-2--0-0-0-0-0-0-0-0--0-2-3---3-2-0----

Solo:
e---------------------------------------------------------
B---------------------------------------------------------
G---------------------15-14-12-15-14-12-------------------
D---15-14-12-15-14-12-------------------15-14-12-15-14-12-
A---—-----------------------------------------------------
E---------------------------------------------------------

e-------------------------------------------------------
B-------------------------------------------------------
G--------16-15>-----------------------------------------
D--15-14------------------------------------------------
A---—---------------------------------------------------
E-------------------------------------------------------

e------------------------------------------------------------
B------------------------------------------------------------
G-----------15-14-12----------15-14-12----------15-14-12—14>>
D--15-14-12----------15-14-12----------15-14-12--------------
A---—--------------------------------------------------------
E------------------------------------------------------------

Repeat then break into fast alternate picking for below.
e-------------------------------------------------------
B-------------------------------------------------------
G--18-17-15-Repeat---19-18-16-Repeat.-------------------
D-------------------------------------------------------
A---—---------------------------------------------------
E-------------------------------------------------------

Break Down:
e-------------------------------------------------------
B-------------------------------------------------------
G-------------------------------------------------------
D-------------------------------------------------------
A--2-—----7-6-5--2-----5--2-----7-6-5--2-----4----------
E--0-0-0---------0-0-0-3--0-0-0--------0-0-0-2----------

e------------------------------------------------------------
B------------------------------------------------------------
G------------------------------------------------------------
D-------------------------------------------------------7**--
A--2-—----7-6-5--2-----8--2-----7-6-5--2-----7-6-5-7-6-5-----
E--0-0-0---------0-0-0-6--0-0-0--------0-0-0-----------------
            
Tabs too difficult? Try these video lessons and learn fast.




comments powered by Disqus
↑ Back to top | Tablatures and chords are parodies/interpretations of the original songs. You may use it for private study, scholarship, research or language learning purposes only