» » »

Around My Head Tabs (ver.3)

Artists:  A B C D E F G H I J K L M N O P Q R S T U V W X Y Z # 

Around My Head Tabs (ver.3)

Cage The Elephant
Rating:
0/5 (0 votes)

Tabs too difficult? Try these video lessons and learn fast.
                Intro:
|-----------------------------------------------------------------------------|
|-----------------------------------------------------------------------------|
|-7~~-6~-7-9-7~-7-9-6~~-7~~-6~-7-9-7~-7-9-6~~---------------------------------|
|-----------------------------------------------------------------------------|
|-----------------------------------------------------------------------------|
|-----------------------------------------------------------------------------|

Verse and Pre-Chorus:
  D     A
|-----------------------------------------------------------------------------|
|-7-------------------------This is this played through-----------------------|
|-x-----6------------------- most of the song but with -----------------------|
|-7-----x--------------------- differnent timing just ------------------------|
|-5-----7-------------------- listen to get the timing -----------------------|
|-------5---------------------------------------------------------------------|

Chorus:
  D       A       F#      G
|-----------------------------------------------------------------------------|
|-7---------------------------------------------------------------------------|
|-x-------6-------3-------4---------------------------------------------------|
|-7-------x-------x-------x---------------------------------------------------|
|-5-------7-------4-------5---------------------------------------------------|
|---------5-------2-------3---------------------------------------------------|

(Repeat Verse and Chorus)

Bridge:
  F#     G
|-----------------------------------------------------------------------------|
|-----------------------------------------------------------------------------|
|-3------4--------------------------------------------------------------------|
|-x------x--------------------------------------------------------------------|
|-4------5--------------------------------------------------------------------|
|-2------3--------------------------------------------------------------------|

(Play chrous 3 times, on last part of 3rd Chorus play verse for "Oh oh oh oh,
Ah ah ah ah" part)

End on:
  C
|-----------------------------------------------------------------------------|
|-5---------------------------------------------------------------------------|
|-x---------------------------------------------------------------------------|
|-5---------------------------------------------------------------------------|
|-3---------------------------------------------------------------------------|
|-----------------------------------------------------------------------------|
            
Tabs too difficult? Try these video lessons and learn fast.


comments powered by Disqus
↑ Back to top | Tablatures and chords are parodies/interpretations of the original songs. You may use it for private study, scholarship, research or language learning purposes only