» » »

Bastard's Waltz Bass tabs (ver.1)

Artists:  A B C D E F G H I J K L M N O P Q R S T U V W X Y Z # 

Bastard's Waltz Bass tabs (ver.1)

Cancer Bats
Rating:
0/5 (0 votes)

Tabs too difficult? Try these video lessons and learn fast.
                Bastard’s Waltz Bass Tab
Cancer Bats
As found on Hail Destroyer

Note:
G|-4h6p4-10-8----8--|
C|------------11----|
can (and it seems that it does) get switched up with
G|-4h6p4-8-6---6-|
C|-----------9---|
Do so at your own discretion.

Also take note that
C||-5-5555-5-5555-5-5555-5-| isn't necessarily what Jaye Schwarzer plays. 
Make up your own part for that if you want. Doesn't really matter a whole lot.

plan on tabbing some more Cancer Bats.
Keep it metal! \m/

Intro/Verse
F|----------------------------------------------------------------------|
C|----------------------------------------------------------------------|
G|---------------4h6p4----------------3/5--------------4h6p4-10-8----8--|
C|-85-5-85-5-85-5------85-5-85-5-85-5------85-5-85-5-85-----------11----|x3

Chorus
F|-----------------------------------------------|__|------------------------|
C|-----------------------------------------------|__|------------------------|
G|-------------------4-6-4-----------------------|__|------------------------|
C|--555555555555-8888------5555555555-8888-3-1-3-|x2|-5-5555-5-5555-5-5555-5-|
                                                        EEQQ-H  
Verse
F|----------------------------------------------------------------------|
C|----------------------------------------------------------------------|
G|---------------4h6p4----------------3/5--------------4h6p4-10-8----8--|
C|-85-5-85-5-85-5------85-5-85-5-85-5------85-5-85-5-85-----------11----|

Chorus
F|----------------------------------------------------|__|---------|
C|----------------------------------------------------|__|---------|
G|---------------------4-6-4--------------------------|__|---------|
C|--555555555555-888888------5555555555-888888-3-1-3-5|x2|-3-1-3-5-|x4

Solo
F|------|     
C|------|     
G|------|    
C|-85-5-|x12 

Bridge
F|-------------------------------------------------|
C|-------------------------------------------------|
G|-------------------------------------------------|
C|-3-1-3-5----3-1-3-5----3-1-3-5----3-1-3-5~-5~-5~-|

Chorus
F|---------------------------------------------------|
C|---------------------------------------------------|
G|---------------------4-6-4-------------------------|
C|--555555555555-888888------5555555555-888888-3-1-3-|x4

F|----------------------------------------------------|
C|----------------------------------------------------|
G|---------------------4-6-4--------------------------|
C|--555555555555-888888------5555555555-888888-3-1-3-5|

F|---------|__|------------------|
C|---------|__|------------------|
G|---------|__|------------------|
C|-3-1-3-5-|x3|-3-1-3-5-xxxxxxxx-|x5|-5\-|

| /  slide up
| \  slide down
| h  hammer-on
| p  pull-off
| ~  vibrato
| +  harmonic
| x  Mute note
            
Tabs too difficult? Try these video lessons and learn fast.


comments powered by Disqus
↑ Back to top | Tablatures and chords are parodies/interpretations of the original songs. You may use it for private study, scholarship, research or language learning purposes only