>
 >
Demons Gate 1

Demons Gate 1 Guitar Tabs

Candlemass - Demons Gate 1 chords, tabs, tablatures, lyrics

Guitar lessons | Add/correct | Request | Top 50 tabs Artists:  A B C D E F G H I J K L M N O P Q R S T U V W X Y Z 0-9

Demons Gate 1 Guitar Tabs – Candlemass

CD, Sheet music, Poster

Do you like Demons Gate 1? Share with your friends now
TabsTabs v2
-------------------------------------------------------------------------------
                          -=[Demon's Gate - Candlemass]=-
-------------------------------------------------------------------------------
Band: Candlemass


Hey guys, this is my tab for this song, and I think it sounds pretty decent. 
Just as a reminder, this is NOT the tab for Candlemass' original version 
of this song, but for their remake of the song, with vocalist Robert Lowe, 
which is in C#, not Eb. Hopefully you guys find this tab helpful, and if you 
have any questions, please feel free to ask them! :D


Tuning: C#


Riff 1 (Starts at 0:16, after drum intro)
|-------------------------------------------------|
|-------------------------------------------------|
|--4----5----8----11----10----9----8----7---------| x1
|--4----5----8----11----10----9----8----7---------|
|--2----3----6----9-----8-----7----6----5------3--|
|-------------------------------------------1-----|


Riff 2 (Starts at 
|----------------------------------------------------|
|----------------------------------------------------| x4 [Note: the bend
|---------------------------------------2--1h2p1-----| on the 3rd fret is
|---------------------------2-2-2--3-2-----------2---| optional; a quarter
|--2---2-2-2------3-2----2---------------------------| bend there sounds
|--0----------2-1-----3b-0---------------------------| good to me though.]

 
Riff 3 (Starts at 1:16)
|--------------|
|--------------|
|--------------| x1
|-----------2--|
|-----------2--|
|--0-0-0-0--0--|
   . . . .

Riff 4 (Starts at 1:24)
|-----------------------------|
|-----------------------------|
|--9----9--10--9----9--10--7--| x1
|--9----9--10--9----9--10--7--|
|--7----7--8---7----7--8---5--|
|-(0)-------------------------|


Riff 5 (Starts at 1:35)
|----------------------------------------------------|
|----------------------------------------------------|
|----------------------------------------------------| x1
|----------------------------------------------------|
|-----8--7--5--7--5--7--8-----8-8--7--5--7--5--7--8--|
|--0-----------------------0-------------------------|


Riff 4 x 1

Riff 5 x 1

Riff 2 x 2

Riff 3 x 1

Riff 4 x 1

Riff 5 x 1

Riff 4 x 1

Riff 5 x 1

Riff 1 x 1

Riff 2 x 2

Riff 3 x 1


Bass Break (Starting at 3:53)
|--------------------|
|--------------------| x2
|------------0-------|
|--0----1---------0--|


Riff 6 (Starting at 4:08)
|--------------------|
|--------------------|
|------------2-------| x2
|--2----3----2----2--|
|--2----3----0----2--|
|--0----1---------0--|


Riff 7 (Starting at 4:23)
|-------------------------------------------------------------------------|
|-------------------------------------------------------------------------|
|-------------------------------------------------------------------------| x2
|--2-----------------3-----------------7-----------------2----------------|
|--2-----------------3-----------------7-----------------2----------------|
|--0--000000000000---1--111111111111---5--555555555555---0--000000000000--|
      ............      ............      ............      ............

Riff 8 (Starting at 4:35)
|--------------------------------------------------------------|
|--------------------------------------------------------------|
|--------------------------------------------------------------| x4
|--1--1-2-1--1-2-4-5-7-5-4--4-4-5-4---4h5p4h5p4--2--2h4p2h4p2--|
|--------------------------------------------------------------|
|--------------------------------------------------------------|

[Note: I'm actually not 100% sure about this part. Mess around with this a little until you get 
the sound that you want. I think this is fairly close to how they play it in the song though.


Riff 9 (Starting at 5:04)
|-----------------------------------------|
|-----------------------------------------|
|--4---4-5--4---4------4---4-5---9-8---5--| x4
|--4---4-5--4---4--4---4---4-5---9-8---5--|
|--2---2-3--2---2--4---2---2-3---7-6---3--|
|------------------2----------------------|


Riff 10a (Starting at 5:32)
|---------------------|
|---------------------|
|---------------------| x7
|---------------------|
|--4---4-5---9-8---5--|
|--2---2-3---7-6---3--|


Riff 10b (Starting at 5:56)
|-----------|
|-----------|
|-----------| x1
|-----------|
|--4---4-5--|
|--2---2-3--|


Riff 1 x 1

Riff 2 x 2

Riff 3 x 1

Riff 4 x 1

Riff 5 x 1

Riff 4 x 1

Riff 5 x 1

Riff 1 x 1

Riff 2 x 6

After some little solos, the song ends on C#.


And that's it! Hopefully you guys have found this tab helpful.

If you have anything you want to say, don't hesitate to leave 
a comment or send me an email! :D


************************************

| /   slide up
| \   slide down
| h   hammer-on
| p   pull-off
| ~   vibrato
| +   harmonic
| x   Mute note
| b   Bend
| pb  Pre-bend
| br  Bend release
| pbr Pre-bend release
| brb Bend release bend

************************************





Comments


Popular Candlemass tabs & chords
Black Dwarf Bass Tabs
Bearer Of Pain Tabs
Black Stone Wielder Tabs
Black Stone Wielder 2 Tabs
House Of 1000 Voices Tabs
Incarnation Of Evil Tabs
Solitude Tabs
The Well Of Souls Tabs
Waterwitch Tabs
Witches Tabs


Song lyrics



↑ Back to top | Tablatures and chords are parodies/interpretations of the original songs. You may use it for private study, scholarship, research or language learning purposes only
© 2014 AZChords.com Contact us | Privacy policy | DMCA | Add/correct tabs | Request tabs | Top 50 tabs