» » »

Emperor Of The Void Tabs (ver.1)

Artists:  A B C D E F G H I J K L M N O P Q R S T U V W X Y Z # 

Emperor Of The Void Tabs (ver.1)

Candlemass
Rating:
0/5 (0 votes)

Tabs too difficult? Try these video lessons and learn fast.
                ------------------------------------------------------------------------------
------------------------------------------------------------------------------
Band: Candlemass


Hey guys, this is my tab for this song, and I think it sounds pretty good. All 
of the rhythm parts are in here, but I didn't tab out the solo. Hopefully 
everything here is accurate, and that you guys find it to be helpful! If you 
have any comments, questions, or corrections to point out, please feel free 
to leave a message here, or to send me an email! :D


Tuning: C#


Riff 1 (Guitar 1)
|---------------------------------------|
|---------------------------------------|
|---------------------------------------| x4
|----9-8-7----9-8-7----10-9-8---10-9-8--|
|--7--------7--------7---------7--------|
|---------------------------------------|

Riff 1 (Guitar 2)
|----------------------------------------|
|----------------------------------------|
|----------------------------------------| x4
|----9-8-7----9-8-7----10-9-8----10-9-8--|
|----9-8-7----9-8-7----10-9-8----10-9-8--|
|--0-7-6-5--0-7-6-5--0-8--7-6--0-8--7-6--|


Riff 2
|---------------|
|---------------|
|---------------| x2
|--2-----3---2--|
|--2-----3---2--|
|--0-----1---0--|


Riff 3
|--------------------------------------|
|--------------------------------------|
|--5--(5)-(5)--8---4---5--(5)--8---11--| x1
|--5--(5)-(5)--8---4---5--(5)--8---11--|
|--3--(3)-(3)--6---2---3--(3)--6---9---|
|--------------------------------------|

[Note: the chords in the parentheses are 
somewhat faint, and a little hard to hear 
in the song. I consider them to be "optional", 
and don't always play them.]


Riff 4a
|---------------------------------|
|---------------------------------|
|---------------------------------| x1
|--2------------------------------|
|--2-----------1-2-3-2-1-2-1------|
|--0--2--3-2-3---------------3-2--|

Riff 4b
|-------------------------------|
|-------------------------------|
|-------------------------------| x1
|--2----------------------------|
|--2-----------1-2-3-2-1-3------|
|--0--2--3-2-3---------------2--|


Riff 4a x 1

Riff 4b x 1

Riff 2 x 2

Riff 3 x 1

Riff 4a x 1

Riff 4b x 1

Riff 4a x 1

Riff 4b x 1


Riff 5
|------------------------------|
|------------------------------|
|------------------------------| x2
|------------------------------|
|------------------------------|
|--0-0-0--0-0-0--0-0-0--0-0-0--|
   . . .  . . .  . . .  . . .

Riff 6
|-------------------|
|-------------------|
|-------------------| x1
|--2-2-2--2-2-2--2--|
|--2-2-2--2-2-2--2--|
|--0-0-0--0-0-0--0--|


Riff 7a
|-------------------------------|
|-------------------------------|
|--5/7-7-7-7-5-5-5--------------| x1
|--5/7-7-7-7-5-5-5---6--5--5\3--|
|--3/5-5-5-5-3-3-3--------------|
|-------------------------------|

Riff 7b
|-----------------------------|
|-----------------------------|
|--5/7-7-7-7-5-5-5------------| x1
|--5/7-7-7-7-5-5-5---6--5--6--|
|--3/5-5-5-5-3-3-3------------|
|-----------------------------|


Riff 7a x 1


Riff 7c
|-----------------------------|
|-----------------------------|
|--5/7-7-7-7-5-5-5------------| x1
|--5/7-7-7-7-5-5-5------------|
|--3/5-5-5-5-3-3-3------------|
|---------------------3b-3-1--|


Riff 7a x 1

Riff 7b x 1

Riff 7a x 1

Riff 7c x 1


Riff 8
|------------------------------|
|--11---8---7-----11---12---6--|
|--10---7---6-----10---11---5--| x2
|--8----5---4-----8----9----3--|
|------------------------------|
|------------------------------|

[Note: I'm actually not 100% sure 
about this part, but I think this 
is at least fairly close to how 
they play it in the song.]


Riff 1 x 2

Riff 2 x 2

Riff 3 x 1

Riff 4a x 1

Riff 4b x 1

Riff 4a x 1

Riff 4b x 1


Riff 9 (Guitar 1)
|------------------------------------------------------|
|------------------------------------------------------|
|------------------------------------------------------| x1
|------------------------------------------------------|
|--7-7--7-7--7--7-7--7-7--7--7-7--7-7--7--7-7--7-5--5--|
|------------------------------------------------------|

Riff 9 (Guitar 2)
|------------------------------------------------------|
|------------------------------------------------------|
|--9-9--9-9--9--9-9--9-9--9--9-9--9-9--9--9-9--9-7--7--|
|--9-9--9-9--9--9-9--9-9--9--9-9--9-9--9--9-9--9-7--7--| x1
|--7-7--7-7--7--7-7--7-7--7--7-7--7-7--7--7-7--7-5--5--|
|------------------------------------------------------|


|-----|
|-----|
|-----| Song ends on C#. [Guitar 2
|--2--| plays the chord, and guitar
|--2--| 1 only plays the high C#.]
|--0--|


And that's just about it!


************************************

| /   slide up
| \   slide down
| h   hammer-on
| p   pull-off
| v   vibrato
| .   Mute note
| *   harmonic
| b   Bend
| pb  Pre-bend
| br  Bend release
| pbr Pre-bend release
| brb Bend release bend

************************************
            
Tabs too difficult? Try these video lessons and learn fast.




comments powered by Disqus
↑ Back to top | Tablatures and chords are parodies/interpretations of the original songs. You may use it for private study, scholarship, research or language learning purposes only