>
 >
Covered With Sorses

Covered With Sorses Bass Tabs

Cannibal Corpse - Covered With Sorses chords, tabs, tablatures, lyrics

Guitar lessons | Add/correct | Request | Top 50 tabs Artists:  A B C D E F G H I J K L M N O P Q R S T U V W X Y Z 0-9

Covered With Sorses Bass Tabs – Cannibal Corpse

CD, Sheet music, Poster

Do you like Covered With Sorses? Share with your friends now
Bass TabsTabs
Tune Down

F#||------------------------------|------------------------------|
C#||------------------------------|------------------------------|
G#||-----------6------------------|-----------6------------------|
D#||--0--0--0---------------------|--0--0--0---------------------|


                                                              
------------------------------|------------------------------|
------------------------------|------------------------------|
-----------6------------------|-----------6------------------|
--0--0--0---------------------|--0--0--0---------------------|


                                       2x                                     
|--------------------------------------||------------------------------------|
|*------------------------------------*||------------------------------------|
|*-----------6------4--------3--------*||-----------6------4--------3--------|
|---0--0--0------------6--5-----5--4---||--0--0--0------------6--5-----5--4--|


                                                                            
------------------------------------|--------------------------------------|
------------------------------------|--------------------------------------|
-----------6------4--------3--------|-----------6--------4--------3--------|
--0--0--0------------6--5-----5--4--|--0--0--0-----8--7-----6--5-----5--4--|


                                                                            
------------------------------------|--------------------------------------|
------------------------------------|--------------------------------------|
-----------6------4--------3--------|-----------6--------4--------3--------|
--0--0--0------------6--5-----5--4--|--0--0--0-----8--7-----6--5-----5--4--|


                                                                          
------------------------------------|------------------------------------|
------------------------------------|------------------------------------|
-----------6------4--------3--------|-----------6------4--------3--------|
--0--0--0------------6--5-----5--4--|--0--0--0------------6--5-----5--4--|


                                                                          
------------------------------------|------------------------------------|
------------------------------------|------------------------------------|
-----------6------4--------3--------|-----------6------4--------3--------|
--0--0--0------------6--5-----5--4--|--0--0--0------------6--5-----5--4--|


                                3x                              
|-------------------------------||-----------------------------|
|*-----------------------------*||-----------------------------|
|*-----------------------------*||-----------------------------|
|---0--0--6----5h6h5h6-4h5h4h5--||--0--0--6----5h6h5h6-4h5h4h5-|


                                                   
--------------------------------------------------|
--------------------------------------------------|
--------------------------------------------------|
--3h4h3h4-2h3h2h3-4h5h4h5-3h4h3h4-2h3h2h3-1h2h1h2-|


                                                                        3x
|-----------------------------------|-----------------------------------||
|*----------------------------------|--------------------------5h4-----*||
|*--3-2-5-2-6-2-2-2-3-2-5-2-6-2-2-2-|--3-2-5-2-6-2-2-2-3-2-5-2-----6h5-*||
|-----------------------------------|-----------------------------------||


                                 7x                               3x
---------------------------------||-------------------------------||
*-------------------------------*||*-----------------------------*||
*---------------5h6h5h6-4h5h4h5-*||*-----------------------------*||
---5h6h5h6-4---------------------||---0--0--6----5h6h5h6-4h5h4h5--||


                                                                       3x
-----------------------------------|-----------------------------------||
*----------------------------------|--------------------------5h4-----*||
*--3-2-5-2-6-2-2-2-3-2-5-2-6-2-2-2-|--3-2-5-2-6-2-2-2-3-2-5-2-----6h5-*||
-----------------------------------|-----------------------------------||


                                 3x                                 
---------------------------------||-------|-----------------------||
*-------------------------------*||*------|----------------------*||
*---------------5h6h5h6-4h5h4h5-*||*------|----------------------*||
---5h6h5h6-4---------------------||-------|----------0--0--0--0---||


                             3x                              3x
-----------------------------||------------------------------||
*---------------------------*||*----------------------------*||
*---------------------------*||*--4--------3----------------*||
---5h6h5h6-4----0--0--0--0---||------6--5-----5--4--5h6h5h6--||


                              2x                             
------------------------------||----------------------------|
*----------------------------*||----------------------------|
*-----------1----------------*||-----------1----------------|
---2--1--0-----3--2--1h2h1h2--||--2--1--0-----3--2--1h2h1h2-|


                                                          
----------------------------|----------------------------|
----------------------------|----------------------------|
--4--------3----------------|--4--------3----------------|
-----6--5-----5--4--5h6h5h6-|-----6--5-----5--4--5h6h5h6-|


                                                          
----------------------------|----------------------------|
----------------------------|----------------------------|
--4--------3----------------|--4--------3----------------|
-----6--5-----5--4--5h6h5h6-|-----6--5-----5--4--5h6h5h6-|


                                                                          
|-----------------------------------|-----------------------------------||
|*----------------------------------|----------------------------------*||
|*----------------------------------|--------------------------8h7-----*||
|---6-5-8-5-9-5-5-5-6-5-8-5-9-5-5-5-|--6-5-8-5-9-5-5-5-6-5-8-5-----9h8--||


                                                                      
----------------------------------|----------------------------------|
----------------------------------|----------------------------------|
----------------------------------|--------------------------8h7-----|
--6-5-8-5-9-5-5-5-6-5-8-5-9-5-5-5-|--6-5-8-5-9-5-5-5-6-5-8-5-----9h8-|


                                                                 
----------------------------------|-----------------------------|
----------------------------------|-----------------------------|
----------------------------------|-----------------------------|
--6-5-8-5-9-5-5-5-6-5-8-5-9-5-5-5-|--6-5-8-5-9-5-5-5-4----4h4---|


                                                          
|---------------------------|---------------------------||
|*--------------------------|--------------------------*||
|*--------------------5--5--|--------------------6--6--*||
|---0--0--1--0--4--0--------|--0--0--1--0--4--0---------||


                                                        
--------------------------||---------------------------|
--------------------------||*--------------------------|
--------5-----------------||*--------------------5--5--|
--0--0-----0--4--0--1--1--||---0--0--1--0--4--0--------|


                                                        
---------------------------||--------------------------|
--------------------------*||--------------------------|
--------------------6--6--*||--------5-----------------|
--0--0--1--0--4--0---------||--0--0-----0--4--0--1--1--|


                                                                
-------------------------------|-------------------------------|
-------------------------------|-------------------------------|
---------------5h6h5h6-4h5h4h5-|---------------4h5h4h5-3h4h3h4-|
--5h6h5h6-4--------------------|--4h5h4h5-3--------------------|


                                                                
-------------------------------|-------------------------------|
-------------------------------|-------------------------------|
---------------3h4h3h4-2h3h2h3-|---------------2h3h2h3-1h2h1h2-|
--3h4h3h4-2--------------------|--2h3h2h3-1--------------------|


                                3x                              
|-------------------------------||-----------------------------|
|*-----------------------------*||-----------------------------|
|*-----------------------------*||-----------------------------|
|---0--0--6----5h6h5h6-4h5h4h5--||--0--0--6----5h6h5h6-4h5h4h5-|


                                                   
--------------------------------------------------|
--------------------------------------------------|
--------------------------------------------------|
--3h4h3h4-2h3h2h3-4h5h4h5-3h4h3h4-2h3h2h3-1h2h1h2-|


                                                                   
------------------------------------------------------------------|
------------------------------------------------------------------|
------------------------------------------------------------------|
--5h6h5h6-4h5h4h5-3h4h3h4-2h3h2h3-4h5h4h5-3h4h3h4-2h3h2h3-1h2h1h2-|


                                                          
|---------------------------|---------------------------||
|*--------------------------|--------------------------*||
|*--------------------5--5--|--------------------6--6--*||
|---0--0--1--0--4--0--------|--0--0--1--0--4--0---------||


                                                        
--------------------------||---------------------------|
--------------------------||*--------------------------|
--------5-----------------||*--------------------5--5--|
--0--0-----0--4--0--1--1--||---0--0--1--0--4--0--------|


                                                                           
---------------------------||--------------------------|------------------|
--------------------------*||--------------------------|------------------|
--------------------6--6--*||--------5-----------------|------------------|
--0--0--1--0--4--0---------||--0--0-----0--4--0--1--1--|------------------|


                        
----------------------||
----------------------||
--5-------------------||
-----x--4--0--1--1----||





Comments


Popular Cannibal Corpse tabs & chords
The Spine Splitter Bass Tabs
A Cauldron Of Hate 3 Tabs
An Experiment In Homcide Tabs
Blowtorch Slaughter Tabs
Demented Aggression 1 Tabs
Dismembered And Molested Tabs
Dismembered And Molested 1 Tabs
Hammer Smashed Face 1 Tabs
Infinate Misery Tabs
When Death Replaces Life 1 Tabs


Song lyrics



↑ Back to top | Tablatures and chords are parodies/interpretations of the original songs. You may use it for private study, scholarship, research or language learning purposes only
© 2014 AZChords.com Contact us | Privacy policy | DMCA | Add/correct tabs | Request tabs | Top 50 tabs