>
 >
Festering In The Crypt

Festering In The Crypt Bass Tabs

Cannibal Corpse - Festering In The Crypt chords, tabs, tablatures, lyrics

Guitar lessons | Add/correct | Request | Top 50 tabs Artists:  A B C D E F G H I J K L M N O P Q R S T U V W X Y Z 0-9

Festering In The Crypt Bass Tabs – Cannibal Corpse

CD, Sheet music, Poster

Do you like Festering In The Crypt? Share with your friends now
Bass TabsTabsTabs v2
          Festering In The Crypt --  Cannibal Corpse             


                             




       A. Intro          
       W                 
F#||--------------------|
C#||*-------------------|
G#||--------------------|
D#||*-------------------|
A#||--------------------|


  W                 3x   W                 
--------------------||--------------------|
-------------------*||*-------------------|
--------------------||--------------------|
-------------------*||*-------------------|
--------------------||--------------------|


  W                   Q    Q     
-------------------|------------|
-------------------|------------|
-------------------|------------|
-------------------|------------|
-------------------|--1----0----|


    Q    Q     Q    Q      
|-------------------------|
|*------------------------|
|-------------/5----4~----|
|*------------------------|
|---0----2----------------|


  Q    H.             3x
----------------------||
---------------------*||
----------------------||
---------------------*||
--0----2~-------------||


  Q    Q     Q    Q      
------------------------|
------------------------|
------------/5----4~----|
------------------------|
--0----2----------------|


  Q    H.              Q    Q     
--------------------|------------|
--------------------|------------|
--------------------|------------|
--------------------|------------|
--2----1------------|--1----0----|


    B. 1st Verse                   
    Q            Q     Q    Q      
|---------------------------------|
|*--------------------------------|
|---------------------/5----4~----|
|*--------------------------------|
|---0------------2----------------|


  Q    Q     S S S S S S S S  3x
------------------------------||
-----------------------------*||
-------------2---2---2--------||
---------------4---4---4-----*||
--0----2~----------------5-2--||


  Q    Q     Q    Q      
------------------------|
------------------------|
------------/5----4~----|
------------------------|
--0----2----------------|


  Q    H.              Q    Q     
--------------------|------------|
--------------------|------------|
--------------------|------------|
--------------------|------------|
--2----1------------|--1----0----|


  Q    Q     Q    Q      
------------------------|
------------------------|
------------/5----4~----|
------------------------|
--0----2----------------|


  Q    H.             
---------------------|
---------------------|
---------------------|
---------------------|
--0----2~------------|


  Q    Q     Q    Q      
------------------------|
------------------------|
------------/5----4~----|
------------------------|
--0----2----------------|


  Q    E   E  E  E  E  E   
--------------------------|
--------------------------|
--------------2-----------|
-----------4-----4--0-----|
--0----2~--------------2--|


  Q    Q     Q    Q     
-----------------------|
-----------------------|
------------/5----4----|
-----------------------|
--0----2---------------|


  Q    H.             
---------------------|
---------------------|
---------------------|
---------------------|
--0----2~------------|


  Q    Q     Q    Q     
-----------------------|
-----------------------|
------------/5----4----|
-----------------------|
--0----2---------------|


  Q    E  E  E  E  E  E     Q    Q     
-------------------------|------------|
-------------------------|------------|
-------------------3-----|--3----2----|
----------0--1--3-----3--|------------|
--2----1-----------------|------------|


    Q    Q     Q    Q     
|------------------------|
|*-----------------------|
|-------------/5----4----|
|*-----------------------|
|---0----2---------------|


  Q    Q     S S S S S S S S  3x
------------------------------||
-----------------------------*||
-------------2---2---2--------||
---------------4---4---4-----*||
--0----2~----------------5-2--||


  Q    Q     S S S S S S S S    
------------------------------||
-----------------------------*||
-------------2---2---2--------||
---------------4---4---4-----*||
--0----2~----------------5-2--||


  Q    Q     S S S S S S S S  
-----------------------------|
-----------------------------|
-------------2---2---2-------|
---------------4---4---4-----|
--0----2~----------------5-2-|


  Q    Q     Q    Q       Q    H.            
-----------------------|--------------------|
-----------------------|--------------------|
------------/5----4----|--------------------|
-----------------------|--------------------|
--0----2---------------|--2----1------------|


                 C. Bridge                   
  Q    Q         E         E  E  E  E  E   4x
------------||-----------------------------||
------------||*---------------------------*||
------------||----------------3-----2------||
------------||*---------------------------*||
--1----0----||---0---------2-----0-----0---||


  E  E    E  E    E  E   
------------------------|
------------------------|
--------3g6-----2g5-----|
------------------------|
--0--2-------0-------0--|


    E  E    E  E    E  E   3x
|--------------------------||
|*------------------------*||
|---------3g6-----2g5------||
|*------------------------*||
|---0--2-------0-------0---||


  D.Pre-Chorus                               
  S            S S S S S S S S S S S S S S S 
---------------------------------------------
---------------------------------------------
---------------------------------------------
---------------------------------4-4-----4-4-
--0------------0-0-0-2-0-2-0-2-2-----2-2-----


  S S S S S S S S S S S S S S S S  
----------------------------------|
------------------6-6-------------|
----------------------7-7-----7-7-|
------8-8-----8-8---------4-4-----|
--6-6-----6-6---------------------|


    S S S S S S S S S S S S S S S S  
|-----------------------------------|
|*----------------------------------|
|-----------------------------------|
|*----------------------4-4-----4-4-|
|---0-0-0-0-2-0-2-0-2-2-----2-2-----|


  S S S S S S S S S S S S S S S S  3x
-----------------------------------||
------------------6-6-------------*||
----------------------7-7-----7-7--||
------8-8-----8-8---------4-4-----*||
--6-6-----6-6----------------------||


   E  E    E  E    E  E   4x
--------------------------||
*------------------------*||
---------3g6-----2g5------||
*------------------------*||
---0--2-------0-------0---||


  S S S S S S S S S S S S S S S S  
----------------------------------|
----------------------------------|
----------------------------------|
----------------------4-4-----4-4-|
--0-0-0-0-2-0-2-0-2-2-----2-2-----|


  S S S S S S S S S S S S S S S S  
----------------------------------|
------------------6-6-------------|
----------------------7-7-----7-7-|
------8-8-----8-8---------4-4-----|
--6-6-----6-6---------------------|


    S S S S S S S S S S S S S S S S  
|-----------------------------------|
|*----------------------------------|
|-----------------------------------|
|*----------------------4-4-----4-4-|
|---0-0-0-0-2-0-2-0-2-2-----2-2-----|


  S S S S S S S S S S S S S S S S  3x
-----------------------------------||
------------------6-6-------------*||
----------------------7-7-----7-7--||
------8-8-----8-8---------4-4-----*||
--6-6-----6-6----------------------||


   E. Bridge                       
   E         E    E  E    E  E   4x
---------------------------------||
*-------------------------------*||
----------------3g6-----2g5------||
*-------------------------------*||
---0---------2-------0-------0---||


   E  E    E  E    E  E   4x
--------------------------||
*------------------------*||
---------3g6-----2g5------||
*------------------------*||
---0--2-------0-------0---||


   Faster: 128 bpm                       
   F. Chorus                             
   E               S S E  S S S S S S  4x
---------------------------------------||
*-------------------------------------*||
---3-------------------2---------------||
*-------------------------------------*||
-------------------0-0----0-0-0-0-2-2--||


   Q    Q     Q    Q      
-------------------------|
*------------------------|
-------------/5----4~----|
*------------------------|
---0----2----------------|


  Q    H.             3x
----------------------||
---------------------*||
----------------------||
---------------------*||
--0----2~-------------||


  Q    Q     Q    Q      
------------------------|
------------------------|
------------/5----4~----|
------------------------|
--0----2----------------|


  Q    H.              Q    Q     
--------------------|------------|
--------------------|------------|
--------------------|------------|
--------------------|------------|
--2----1------------|--1----0----|


    Q    Q     Q    Q      
|-------------------------|
|*------------------------|
|-------------/5----4~----|
|*------------------------|
|---0----2----------------|


  Q    H.             3x
----------------------||
---------------------*||
----------------------||
---------------------*||
--0----2~-------------||


  Q    Q     Q    Q      
------------------------|
------------------------|
------------/5----4~----|
------------------------|
--0----2----------------|


  Q    H.              Q    Q     
--------------------|------------|
--------------------|------------|
--------------------|------------|
--------------------|------------|
--2----1------------|--1----0----|


    E  S S E  S S S S S S  4x
|--------------------------||
|*------------------------*||
|---3------2---------------||
|*------------------------*||
|------0-0----0-0-0-0-2-2--||


   Tempo I                   
   E       E  E  E  E  E   3x
---------------------------||
*-------------------------*||
---3----------2------------||
*-------------------------*||
-----------0-----0--0--2---||


  E  E  E  E  E  E   
--------------------|
--------------------|
--3-----2-----------|
--------------------|
-----0-----0--0--2--|


  G. Outro                   
  Q        Q     Q    Q      
----------------------------|
----------------------------|
----------------/5----4~----|
----------------------------|
--0--------2----------------|


  Q    H.             
---------------------|
---------------------|
---------------------|
---------------------|
--0----2~------------|


  Q    Q     Q    Q      
------------------------|
------------------------|
------------/5----4~----|
------------------------|
--0----2----------------|


  Q    H.             
---------------------|
---------------------|
---------------------|
---------------------|
--0----2~------------|


  Q    Q     Q    Q      
------------------------|
------------------------|
------------/5----4~----|
------------------------|
--0----2----------------|


  Q    E   E  E  E  E  E   
--------------------------|
--------------------------|
--------------2-----------|
-----------4-----4--0-----|
--0----2~--------------2--|


  Q    Q     Q    Q     
-----------------------|
-----------------------|
------------/5----4----|
-----------------------|
--0----2---------------|


  Q    E  E  E  E  E  E     Q    Q     
-------------------------|------------|
-------------------------|------------|
-------------------3-----|--3----2----|
----------0--1--3-----3--|------------|
--2----1-----------------|------------|


  Q    Q     Q    Q     
-----------------------|
-----------------------|
------------/5----4----|
-----------------------|
--0----2---------------|


  Q    Q     S S S S S S S S  
-----------------------------|
-----------------------------|
-------------2---2---2-------|
---------------4---4---4-----|
--0----2~----------------5-2-|


  Q    Q     Q    Q     
-----------------------|
-----------------------|
------------/5----4----|
-----------------------|
--0----2---------------|


  Q    Q     S S S S S S S S  
-----------------------------|
-----------------------------|
-------------2---2---2-------|
---------------4---4---4-----|
--0----2~----------------5-2-|


  Q    Q     Q    Q     
-----------------------|
-----------------------|
------------/5----4----|
-----------------------|
--0----2---------------|


  Q    Q     S S S S S S S S  
-----------------------------|
-----------------------------|
-------------2---2---2-------|
---------------4---4---4-----|
--0----2~----------------5-2-|


  Q    Q     Q    Q       Q    H.            
-----------------------|--------------------|
-----------------------|--------------------|
------------/5----4----|--------------------|
-----------------------|--------------------|
--0----2---------------|--2----1------------|


  Q    Q       Q    Q    Q    Q     
------------|----------------------|
------------|----------------------|
--3----2----|------------5----4----|
------------|----------------------|
------------|--0----2--------------|


  Q    H.                   
---------------------|----||
---------------------|----||
---------------------|----||
---------------------|----||
--0----2~------------|----||




Duration Legend
---------------
W - whole
H - half
Q - quarter
E - 8th
S - 16th
T - 32nd
X - 64th
. - note dotted
|-n-|  - n-tuplets


Tablature Legend
----------------
L - tied note
x - dead note
g - grace note
(n) - ghost note
> - accentuded note
NH - natural harmonic
AH - artificial harmonic
TH - tapped harmonic
SH - semi harmonic
PH - pitch harmonic
h - hammer on
p - pull off
b - bend
br - bendRelease
pb - preBend
pbr - preBendRelease
brb - bendReleaseBend
\n/ - tremolo bar dip
\n - tremolo bar dive
-/n - tremolo bar Release up
/n\ - tremolo bar inverted dip
/n - tremolo bar return
-\n - tremolo bar Release down
S - shift slide
s - legato slide
/ -  slide into from below or out of upwards
\ -  slide into from above or out of downwards
~ - vibrato
W - wide vibrato
tr - trill
TP - tremolo picking
T - tapping
S - slap
P - pop
< - fade in
^ - brush up
v - brush down





Comments


Popular Cannibal Corpse tabs & chords
Addicted To Vaginal Skin Bass Tabs
Condemned To Agony Tabs
Encased In Concrete Tabs
Grotesque Tabs
Hacksaw Decapitation 1 Tabs
Pit Of Zombies Tabs
Priests Of Sodom 2 Tabs
Priests Of Sodom 3 Tabs
Starring Through The Eyes Of The Dead Tabs
Stripped Raped And Strangled 1 Tabs


Song lyrics



↑ Back to top | Tablatures and chords are parodies/interpretations of the original songs. You may use it for private study, scholarship, research or language learning purposes only
© 2014 AZChords.com Contact us | Privacy policy | DMCA | Add/correct tabs | Request tabs | Top 50 tabs