>
 >
Frantic Disembowelment

Frantic Disembowelment Bass Tabs

Cannibal Corpse - Frantic Disembowelment chords, tabs, tablatures, lyrics

Guitar lessons | Add/correct | Request | Top 50 tabs Artists:  A B C D E F G H I J K L M N O P Q R S T U V W X Y Z 0-9

Frantic Disembowelment Bass Tabs – Cannibal Corpse

CD, Sheet music, Poster

Do you like Frantic Disembowelment? Share with your friends now
Bass TabsTabsTabs v2Tabs v3
                            Frantic Disembowelment                              


                              by Cannibal Corpse
Bass



      H.           S S S S      E  E  H        S S S S  
F#||-----------------------||--------------------------|
C#||-----------------------||*-------------------------|
G#||-----------------------||--------------------------|
D#||-----------------------||*-------------------------|
A#||---------------3-3-3-3-||---2--------------3-3-3-3-|


                                           |---3---|   
  E  E  H        S S S S    E  E  H        E   E   E   
-------------------------|----------------------------|
-------------------------|----------------------------|
-------------------------|----------------------------|
-------------------------|----------------------------|
--2--------------3-3-3-3-|--2--------------3h--6p--3--|


  |---3---|              |---3---|     |---3---|              |---3---|   
  E   E   E  E  E  E  E  E   E   E     E   E   E  E  E  E  E  E   E   E   
------------------------------------|------------------------------------|
------------------------------------|------------------------------------|
------------------------------------|------------------------------------|
----------------3--4----------------|----------------3--4----------------|
--2h--5p--2--2--------3--3h--6p--3--|--2h--5p--2--2--------3--3h--6p--3--|


  |---3---|              |---3---|     |---3---|              |---3---|   
  E   E   E  E  E  E  E  E   E   E     E   E   E  E  E  E  E  E   E   E   
------------------------------------|------------------------------------|
------------------------------------|------------------------------------|
------------------------------------|------------------------------------|
----------------3--4----------------|----------------3--4----------------|
--2h--5p--2--2--------3--3h--6p--3--|--2h--5p--2--2--------3--3h--6p--3--|


  |---3---|              |---3---|     |---3---|              |---3---|   
  E   E   E  E  E  E  E  E   E   E     E   E   E  E  E  E  E  E   E   E   
------------------------------------|------------------------------------|
------------------------------------|------------------------------------|
------------------------------------|------------------------------------|
----------------3--4----------------|----------------3--4----------------|
--2h--5p--2--2--------3--3h--6p--3--|--2h--5p--2--2--------3--3h--6p--3--|


  |---3---|              |---3---|     |---3---|              |---3---|   
  E   E   E  E  E  E  E  E   E   E     E   E   E  E  E  E  E  E   E   E   
------------------------------------|------------------------------------|
------------------------------------|------------------------------------|
------------------------------------|------------------------------------|
----------------3--4----------------|----------------3--4----------------|
--2h--5p--2--2--------3--3h--6p--3--|--2h--5p--2--2--------3--3h--6p--3--|


  E  E  E  E  E  E  E  E  E  E  E  E   
--------------------------------------|
--------------------------------------|
--8-----------9-----9-----------8-----|
--------7--8--------------9--8-----4--|
-----6-----------4-----6--------------|


                                      |---3---|   
  E  E  E  E  E  E  E  E  E  E  E  E  E   E   E   
-------------------------------------------------|
-------------------------------------------------|
--5-----------6-----6-----------5----------------|
--------4--5--------------6--5-----4-------------|
-----3-----------1-----3--------------3h--6p--3--|


  |---3---|              |---3---|     |---3---|              |---3---|   
  E   E   E  E  E  E  E  E   E   E     E   E   E  E  E  E  E  E   E   E   
------------------------------------|------------------------------------|
------------------------------------|------------------------------------|
------------------------------------|------------------------------------|
----------------3--4----------------|----------------3--4----------------|
--2h--5p--2--2--------3--3h--6p--3--|--2h--5p--2--2--------3--3h--6p--3--|


  |---3---|              |---3---|     |---3---|              |---3---|   
  E   E   E  E  E  E  E  E   E   E     E   E   E  E  E  E  E  E   E   E   
------------------------------------|------------------------------------|
------------------------------------|------------------------------------|
------------------------------------|------------------------------------|
----------------3--4----------------|----------------3--4----------------|
--2h--5p--2--2--------3--3h--6p--3--|--2h--5p--2--2--------3--3h--6p--3--|


  E  E  E  E  E  E  E  E  E  E  E  E   
--------------------------------------|
--------------------------------------|
--8-----------9-----9-----------8-----|
--------7--8--------------9--8-----4--|
-----6-----------4-----6--------------|


                                      |---3---|   
  E  E  E  E  E  E  E  E  E  E  E  E  E   E   E   
-------------------------------------------------|
-------------------------------------------------|
--5-----------6-----6-----------5----------------|
--------4--5--------------6--5-----4-------------|
-----3-----------1-----3--------------3h--6p--3--|


  |---3---|              |---3---|     |---3---|              |---3---|   
  E   E   E  E  E  E  E  E   E   E     E   E   E  E  E  E  E  E   E   E   
------------------------------------|------------------------------------|
------------------------------------|------------------------------------|
------------------------------------|------------------------------------|
----------------3--4----------------|----------------3--4----------------|
--2h--5p--2--2--------3--3h--6p--3--|--2h--5p--2--2--------3--3h--6p--3--|


  |---3---|              |---3---|     |---3---|              |---3---|   
  E   E   E  E  E  E  E  E   E   E     E   E   E  E  E  E  E  E   E   E   
------------------------------------|------------------------------------|
------------------------------------|------------------------------------|
------------------------------------|------------------------------------|
----------------3--4----------------|----------------3--4----------------|
--2h--5p--2--2--------3--3h--6p--3--|--2h--5p--2--2--------3--3h--6p--3--|


  |---3---|            |---3---|     |---3---|            |---3---|   
  E   E   E  Q    Q    E   E   E     E   E   E  Q    Q    E   E   E   
----------------------------------|----------------------------------|
----------------------------------|----------------------------------|
----------------------------------|----------------------------------|
-------------7----8---------------|-------------7----8---------------|
--5h--8p--5------------6h--9p--6--|--5h--8p--5------------6h--9p--6--|


  |---3---|            |---3---|   
  E   E   E  Q    Q    E   E   E   
----------------------------------|
----------------------------------|
----------------------------------|
-------------7----8---------------|
--5h--8p--5------------6h--9p--6--|


  |---3---|            |---3---|               
  E   E   E  Q    Q    E   E   E  Q    Q       
---------------------------------------------||
--------------------------------------------*||
---------------------------------------------||
-------------7----8---------------5----4----*||
--5h--8p--5------------6h--9p--6-------------||


  ^     ^     ^     ^     ^     ^     ^      
  E  E  E  E  E  E  E  E  E  E  E  E  E  E   
--------------------------------------------|
--------------------------------------------|
--------------------------------------------|
--------------------------------------------|
--0-----0-----0-----0-----0-----0-----0-----|


  ^     ^     ^     ^     ^     ^     ^      
  E  E  E  E  E  E  E  E  E  E  E  E  E  E   
--------------------------------------------|
--------------------------------------------|
--------------------------------------------|
--------------------------------------------|
--0-----0-----0-----0-----0-----0-----0-----|


  ^     ^     ^     ^     ^     ^     ^        ^     ^     ^     ^     ^      
  E  E  E  E  E  E  E  E  E  E  E  E  E  E     E  E  E  E  E  E  E  E  E  E   
--------------------------------------------|--------------------------------|
--------------------------------------------|--------------------------------|
--------------------------------------------|--------------------------------|
--------------------------------------------|--------------------------------|
--0-----0-----0-----0-----0-----0-----0-----|--0-----0-----0-----0-----0-----|


  ^     ^     ^     ^      
  E  E  E  E  E  E  E  E   
--------------------------|
--------------------------|
--------------------------|
--------------------------|
--0-----0-----0-----0-----|


    E   E  E   E  E   E  E   E  E   E  E   E  E   E  E   E  E   E  E   E  E   E 
|-------------------------------------------------------------------------------
|*------------------------------------------------------------------------------
|-------------------------------------------------------------------------------
|*---------5p--4--7h--8----------------5p--4---------4h--5--8p--7--6h--7--------
|---3p--2----------------4p--3--6h--7---------6h--7-----------------------6p--5-


  E   E  E   E  E   E  E   E  E   E  E   E  E   E  E   E  E   E  E   E  E   E   
-------------------------------------------------------------------------------|
-------------------------------------------------------------------------------|
-------------------------------------------------------------------------------|
---------5p--4--7h--8----------------5p--4---------4h--5--8p--7--6h--7---------|
--3p--2----------------4p--3--6h--7---------6h--7-----------------------6p--5--|


  ^     ^     ^     ^                                                          
                                                                  |----3---|   
  E  E  E  E  E  E  E  E       E  E  E  E   E  E   E   E   E   E  E    E   E   
---------------------------||-------------------------------------------------|
--------------------------*||-------------------------------------------------|
---------------------------||-------------------------------------------------|
--------------------------*||--7--------9--10---------11--12------------------|
--0-----0-----0-----0------||-----7--8---------9--10----------10--9h--12p--9--|


  |---3---|  |---3---|  |---3---|  |---3---|  |---3---|  |---3---|   
  E   E   E  E   E   E  E   E   E  E   E   E  E   E   E  E   E   E   
--------------------------------------------------------------------|
--------------------------------------------------------------------|
-------------5h--8p--5--6h--9p--6-------------2h--5p--2--3h--6p--3--|
--------------------------------------------------------------------|
--6h--9p--6------------------------3h--6p--3------------------------|


                                     |----3---|   
  E  E  E  E   E  E   E   E   E   E  E    E   E   
-------------------------------------------------|
-------------------------------------------------|
-------------------------------------------------|
--7--------9--10---------11--12------------------|
-----7--8---------9--10----------10--9h--12p--9--|


  |---3---|  |---3---|  |---3---|  |---3---|  |---3---|  |---3---|   
  E   E   E  E   E   E  E   E   E  E   E   E  E   E   E  E   E   E   
--------------------------------------------------------------------|
--------------------------------------------------------------------|
-------------5h--8p--5--6h--9p--6-------------2h--5p--2--3h--6p--3--|
--------------------------------------------------------------------|
--6h--9p--6------------------------3h--6p--3------------------------|


                                     |----3---|   
  E  E  E  E   E  E   E   E   E   E  E    E   E   
-------------------------------------------------|
-------------------------------------------------|
-------------------------------------------------|
--7--------9--10---------11--12------------------|
-----7--8---------9--10----------10--9h--12p--9--|


  |---3---|  |---3---|  |---3---|  |---3---|  |---3---|  |---3---|   
  E   E   E  E   E   E  E   E   E  E   E   E  E   E   E  E   E   E   
--------------------------------------------------------------------|
--------------------------------------------------------------------|
-------------5h--8p--5--6h--9p--6-------------2h--5p--2--3h--6p--3--|
--------------------------------------------------------------------|
--6h--9p--6------------------------3h--6p--3------------------------|


                                     |----3---|   
  E  E  E  E   E  E   E   E   E   E  E    E   E   
-------------------------------------------------|
-------------------------------------------------|
-------------------------------------------------|
--7--------9--10---------11--12------------------|
-----7--8---------9--10----------10--9h--12p--9--|


  |---3---|  |---3---|  |---3---|  |---3---|  |---3---|  |---3---|   
  E   E   E  E   E   E  E   E   E  E   E   E  E   E   E  E   E   E   
--------------------------------------------------------------------|
--------------------------------------------------------------------|
-------------5h--8p--5--6h--9p--6-------------2h--5p--2--3h--6p--3--|
--------------------------------------------------------------------|
--6h--9p--6------------------------3h--6p--3------------------------|


  ^     ^     ^     ^      
  E  E  E  E  E  E  E  E   
--------------------------|
--------------------------|
--------------------------|
--------------------------|
--0-----0-----0-----0-----|


    E   E  E   E  E   E  E   E  E   E  E   E  E   E  E   E  E   E  E   E  E   E 
|-------------------------------------------------------------------------------
|*------------------------------------------------------------------------------
|-------------------------------------------------------------------------------
|*---------5p--4--7h--8----------------5p--4---------4h--5--8p--7--6h--7--------
|---3p--2----------------4p--3--6h--7---------6h--7-----------------------6p--5-


  E   E  E   E  E   E  E   E  E   E  E   E  E   E  E   E  E   E  E   E  E   E   
-------------------------------------------------------------------------------|
-------------------------------------------------------------------------------|
-------------------------------------------------------------------------------|
---------5p--4--7h--8----------------5p--4---------4h--5--8p--7--6h--7---------|
--3p--2----------------4p--3--6h--7---------6h--7-----------------------6p--5--|


  ^     ^     ^     ^                        tr          tr           
  E  E  E  E  E  E  E  E        S S S S Q    H           H            
---------------------------||-----------L----------------------------|
--------------------------*||*--8-------L----------------------------|
---------------------------||-----x-----L----------------------------|
--------------------------*||*------7---L----3(6)--------------------|
--0-----0-----0-----0------||---------8------------------2(5)--------|


  ^     ^     ^     ^          ^     ^     ^     ^        
  E  E  E  E  E  E  E  E       E  E  E  E  E  E  E  E     
---------------------------||---------------------------||
--------------------------*||--------------------------*||
---------------------------||---------------------------||
--0-----0-----0-----0-----*||--0-----0-----0-----0-----*||
---------------------------||---------------------------||


  ^     ^     ^     ^                                   
  E  E  E  E  E  E  E  E     W                H         
--------------------------|----------------------------|
--------------------------|----------------------------|
--------------------------|----------------------------|
--0-----0-----0-----0-----|----------------------------|
--------------------------|----------------------------|


  ^     ^     ^     ^                                                          
                                                                  |----3---|   
  E  E  E  E  E  E  E  E       E  E  E  E   E  E   E   E   E   E  E    E   E   
--------------------------||--------------------------------------------------|
--------------------------||*-------------------------------------------------|
--------------------------||--------------------------------------------------|
--------------------------||*--7--------9--10---------11--12------------------|
--0-----0-----0-----0-----||------7--8---------9--10----------10--9h--12p--9--|


  |---3---|  |---3---|  |---3---|  |---3---|  |---3---|  |---3---|     
  E   E   E  E   E   E  E   E   E  E   E   E  E   E   E  E   E   E     
---------------------------------------------------------------------||
--------------------------------------------------------------------*||
-------------5h--8p--5--6h--9p--6-------------2h--5p--2--3h--6p--3---||
--------------------------------------------------------------------*||
--6h--9p--6------------------------3h--6p--3-------------------------||


                                      |----3---|   
   E  E  E  E   E  E   E   E   E   E  E    E   E   
--------------------------------------------------|
*-------------------------------------------------|
--------------------------------------------------|
*--7--------9--10---------11--12------------------|
------7--8---------9--10----------10--9h--12p--9--|


  |---3---|  |---3---|  |---3---|  |---3---|  |---3---|  |---3---|     
  E   E   E  E   E   E  E   E   E  E   E   E  E   E   E  E   E   E     
---------------------------------------------------------------------||
--------------------------------------------------------------------*||
-------------5h--8p--5--6h--9p--6-------------2h--5p--2--3h--6p--3---||
--------------------------------------------------------------------*||
--6h--9p--6------------------------3h--6p--3-------------------------||


  E  E  H        S S S S    E  E  H        S S S S  
-------------------------|-------------------------|
-------------------------|-------------------------|
-------------------------|-------------------------|
-------------------------|-------------------------|
--2--------------3-3-3-3-|--2--------------3-3-3-3-|


                 |---3---|     |---3---|              |---3---|   
  E  E  H        E   E   E     E   E   E  E  E  E  E  E   E   E   
----------------------------|------------------------------------|
----------------------------|------------------------------------|
----------------------------|------------------------------------|
----------------------------|----------------3--4----------------|
--2--------------3h--6p--3--|--2h--5p--2--2--------3--3h--6p--3--|


  |---3---|              |---3---|     |---3---|              |---3---|   
  E   E   E  E  E  E  E  E   E   E     E   E   E  E  E  E  E  E   E   E   
------------------------------------|------------------------------------|
------------------------------------|------------------------------------|
------------------------------------|------------------------------------|
----------------3--4----------------|----------------3--4----------------|
--2h--5p--2--2--------3--3h--6p--3--|--2h--5p--2--2--------3--3h--6p--3--|


  |---3---|              |---3---|     |---3---|              |---3---|   
  E   E   E  E  E  E  E  E   E   E     E   E   E  E  E  E  E  E   E   E   
------------------------------------|------------------------------------|
------------------------------------|------------------------------------|
------------------------------------|------------------------------------|
----------------3--4----------------|----------------3--4----------------|
--2h--5p--2--2--------3--3h--6p--3--|--2h--5p--2--2--------3--3h--6p--3--|


  |---3---|              |---3---|     |---3---|              |---3---|   
  E   E   E  E  E  E  E  E   E   E     E   E   E  E  E  E  E  E   E   E   
------------------------------------|------------------------------------|
------------------------------------|------------------------------------|
------------------------------------|------------------------------------|
----------------3--4----------------|----------------3--4----------------|
--2h--5p--2--2--------3--3h--6p--3--|--2h--5p--2--2--------3--3h--6p--3--|


  |---3---|              |---3---|                                          
  E   E   E  E  E  E  E  E   E   E     E  E  E  E  E  E  E  E  E  E  E  E   
------------------------------------|--------------------------------------|
------------------------------------|--------------------------------------|
------------------------------------|--8-----------9-----9-----------8-----|
----------------3--4----------------|--------7--8--------------9--8-----4--|
--2h--5p--2--2--------3--3h--6p--3--|-----6-----------4-----6--------------|


                                      |---3---|   
  E  E  E  E  E  E  E  E  E  E  E  E  E   E   E   
-------------------------------------------------|
-------------------------------------------------|
--5-----------6-----6-----------5----------------|
--------4--5--------------6--5-----4-------------|
-----3-----------1-----3--------------3h--6p--3--|


  |---3---|              |---3---|     |---3---|              |---3---|   
  E   E   E  E  E  E  E  E   E   E     E   E   E  E  E  E  E  E   E   E   
------------------------------------|------------------------------------|
------------------------------------|------------------------------------|
------------------------------------|------------------------------------|
----------------3--4----------------|----------------3--4----------------|
--2h--5p--2--2--------3--3h--6p--3--|--2h--5p--2--2--------3--3h--6p--3--|


  |---3---|              |---3---|     |---3---|              |---3---|   
  E   E   E  E  E  E  E  E   E   E     E   E   E  E  E  E  E  E   E   E   
------------------------------------|------------------------------------|
------------------------------------|------------------------------------|
------------------------------------|------------------------------------|
----------------3--4----------------|----------------3--4----------------|
--2h--5p--2--2--------3--3h--6p--3--|--2h--5p--2--2--------3--3h--6p--3--|


  E  E  E  E  E  E  E  E  E  E  E  E   
--------------------------------------|
--------------------------------------|
--8-----------9-----9-----------8-----|
--------7--8--------------9--8-----4--|
-----6-----------4-----6--------------|


                                      |---3---|   
  E  E  E  E  E  E  E  E  E  E  E  E  E   E   E   
-------------------------------------------------|
-------------------------------------------------|
--5-----------6-----6-----------5----------------|
--------4--5--------------6--5-----4-------------|
-----3-----------1-----3--------------3h--6p--3--|


  |---3---|              |---3---|     |---3---|              |---3---|   
  E   E   E  E  E  E  E  E   E   E     E   E   E  E  E  E  E  E   E   E   
------------------------------------|------------------------------------|
------------------------------------|------------------------------------|
------------------------------------|------------------------------------|
----------------3--4----------------|----------------3--4----------------|
--2h--5p--2--2--------3--3h--6p--3--|--2h--5p--2--2--------3--3h--6p--3--|


  |---3---|              |---3---|     |---3---|              |---3---|   
  E   E   E  E  E  E  E  E   E   E     E   E   E  E  E  E  E  E   E   E   
------------------------------------|------------------------------------|
------------------------------------|------------------------------------|
------------------------------------|------------------------------------|
----------------3--4----------------|----------------3--4----------------|
--2h--5p--2--2--------3--3h--6p--3--|--2h--5p--2--2--------3--3h--6p--3--|


  |---3---|            |---3---|     |---3---|            |---3---|   
  E   E   E  Q    Q    E   E   E     E   E   E  Q    Q    E   E   E   
----------------------------------|----------------------------------|
----------------------------------|----------------------------------|
----------------------------------|----------------------------------|
-------------7----8---------------|-------------7----8---------------|
--5h--8p--5------------6h--9p--6--|--5h--8p--5------------6h--9p--6--|


  |---3---|            |---3---|     |---3---|            |---3---|             
  E   E   E  Q    Q    E   E   E     E   E   E  Q    Q    E   E   E  Q    Q     
----------------------------------|--------------------------------------------|
----------------------------------|--------------------------------------------|
----------------------------------|--------------------------------------------|
-------------7----8---------------|-------------7----8---------------5----4----|
--5h--8p--5------------6h--9p--6--|--5h--8p--5------------6h--9p--6------------|


  E  E  E  E  E  E  E  E  E  E  Q    Q     
------------------------------------------|
------------------------------------------|
------------------------------------------|
--------------------------------5----4----|
--0--0--0--0--0--0--0--0--0--0------------|


  E  E  E  E  E  E  E  E  E  E  Q    Q     
------------------------------------------|
------------------------------------------|
------------------------------------------|
--------------------------------5----4----|
--0--0--0--0--0--0--0--0--0--0------------|


  E  E  E  E  E  E  E  E  E  E  Q    Q       E  E  E  E  E  E  E  E  E  E   
------------------------------------------|--------------------------------|
------------------------------------------|--------------------------------|
------------------------------------------|--------------------------------|
--------------------------------5----4----|--------------------------------|
--0--0--0--0--0--0--0--0--0--0------------|--0--0--0--0--0--0--0--0--0--0--|


  ^     ^     ^     ^       
  E  E  E  E  E  E  E  E    
--------------------------||
--------------------------||
--------------------------||
--------------------------||
--0-----0-----0-----0-----||




Duration Legend
---------------
W - whole
H - half
Q - quarter
E - 8th
S - 16th
T - 32nd
X - 64th
. - note dotted
|-n-|  - n-tuplets


Tablature Legend
----------------
L - tied note
x - dead note
g - grace note
(n) - ghost note
> - accentuded note
NH - natural harmonic
AH - artificial harmonic
TH - tapped harmonic
SH - semi harmonic
PH - pitch harmonic
h - hammer on
p - pull off
b - bend
br - bendRelease
pb - preBend
pbr - preBendRelease
brb - bendReleaseBend
\n/ - tremolo bar dip
\n - tremolo bar dive
-/n - tremolo bar Release up
/n\ - tremolo bar inverted dip
/n - tremolo bar return
-\n - tremolo bar Release down
S - shift slide
s - legato slide
/ -  slide into from below or out of upwards
\ -  slide into from above or out of downwards
~ - vibrato
W - wide vibrato
tr - trill
TP - tremolo picking
T - tapping
S - slap
P - pop
< - fade in
^ - brush up
v - brush down





Comments


Popular Cannibal Corpse tabs & chords
Hammer Smashed Face 2 Bass Tabs
Coffinfeeder 1 Tabs
Condemned To Agony Tabs
Evidence In The Furnace Intro Tabs
From Skin To Liquid Tabs
Headless 1 Tabs
Infinite Misery Tabs
Post Mortal Ejaculation 2 Tabs
Put Them To Death Tabs
Severed Head Stoning 1 Tabs


Song lyrics



↑ Back to top | Tablatures and chords are parodies/interpretations of the original songs. You may use it for private study, scholarship, research or language learning purposes only
© 2014 AZChords.com Contact us | Privacy policy | DMCA | Add/correct tabs | Request tabs | Top 50 tabs