» » »

Retrovisor Tabs (ver.1)

Artists:  A B C D E F G H I J K L M N O P Q R S T U V W X Y Z # 

Retrovisor Tabs (ver.1)

Caramelos De Cianuro
Rating:
0/5 (0 votes)

Tabs too difficult? Try these video lessons and learn fast.
                Dspues d los punteos d bajo:

Intro
e|--------------------------------------------|
B|--------------------------------------------|
G|-------------------5-5-5-5/3-3-3------------|
D|-8-8-8-8/7-7-7-----5-5-5-5/3-3-3------------|
A|-8-8-8-8/7-7-7-----3-3-3-3/1-1-1------------|
E|-6-6-6-6/5-5-5------------------------------|

Versos: igual que el intro

e|--------------------------------------------|
B|--------------------------------------------|
G|-------------------5-5-5-5/3-3-3------------|
D|-8-8-8-8/7-7-7-----5-5-5-5/3-3-3------------|
A|-8-8-8-8/7-7-7-----3-3-3-3/1-1-1------------|
E|-6-6-6-6/5-5-5------------------------------|

Coro:

e|--------------------------------------------|
B|--------------------------------------------|
G|--------3-3-3-3-3---------------------------|
D|-3-3-3--3-3-3-3-3--7-7-7-7------------------|
A|-3-3-3--1-1-1-1-1--7-7-7-7------------------|
E|-1-1-1-------------5-5-5-5------------------|

e|--------------------------------------------|
B|--------------------------------------------|
G|-------5-5-5-5--3-3-3-3-3-------------------|
D|-3-3-3-5-5-5-5--3-3-3-3-3-3-3-3-3-----------|
A|-3-3-3-3-3-3-3--1-1-1-1-1-3-3-3-3-----------|
E|-1-1-1--------------------1-1-1-1-----------|

Intermedio:

e|----------------------------------------------|
B|----------------------------------------------|
G|-5-5-5-5-----------3-3-3-3--5-5-5-5-----------|
D|-5-5-5-5--7-7-7-7--3-3-3-3--5-5-5-5--7-7-7-7--|
A|-3-3-3-3--7-7-7-7--1-1-1-1--3-3-3-3--7-7-7-7--|
E|----------5-5-5-5--------------------5-5-5-5--|

e|----------------------------------------------|
B|----------------------------------------------|
G|-3-3-3-3-------------------------5-5----------|
D|-3-3-3-3--3-3-3-3--0-3-3-0-3-3-0-5-5----------|
A|-1-1-1-1--3-3-3-3--0-3-3-0-3-3-0-3-3----------|
E|----------1-1-1-1--0-1-1-0-1-1-0--------------|
            
Tabs too difficult? Try these video lessons and learn fast.


comments powered by Disqus
↑ Back to top | Tablatures and chords are parodies/interpretations of the original songs. You may use it for private study, scholarship, research or language learning purposes only