» » »

Can't Stop It But I'm Gonna Try Tabs (ver.1)

Artists:  A B C D E F G H I J K L M N O P Q R S T U V W X Y Z # 

Can't Stop It But I'm Gonna Try Tabs (ver.1)

Cheap Trick
Rating:
0/5 (0 votes)
Tabs too difficult? Try these video lessons and learn fast.
                Intro
e--------------------------------------------------------------------|
B--12b-12b-11-9-11-12-9--------11b-11b-9--9-11-9---------------------|
G---------------------------------------12---------------------------|
D--------------------------------------------------------------------|
A--------------------------------------------------------------------|
E--------------------------------------------------------------------|

e--------------------------------------------------------------------|
B--12b-12b-11-9-11-12-9--------11b-11b-9--9--------------------------|
G---------------------------------------12---------------------------|
D--------------------------------------------------------------------|
A--------------------------------------------------------------------|
E--------------------------------------------------------------------|


             D5
It's been a long time, baby
e--------------------------------------------------------------------|
B--------------------------------------------------------------------|
G---------------------------0------2-------4-------------------------|
D--------------------------------------------------------------------|
A--------------------------------------------------------------------|
E--------------------------------------------------------------------|

             C5
It's been a long time comin', I don't like it
e--------------------------------------------------------------------|
B--------------------------------------------------------------------|
G---------------------------0-----2--------4-------------------------|
D--------------------------------------------------------------------|
A--------------------------------------------------------------------|
E--------------------------------------------------------------------|
             Am
It's been on my mind, baby
e--------------------------------------------------------------------|
B--------------------------------------------------------------------|
G---------------------------0-----2--------4-------------------------|
D--------------------------------------------------------------------|
A--------------------------------------------------------------------|
E--------------------------------------------------------------------|
              Gm
It's not the same anymore
e--------------------------------------------------------------------|
B--------------------------------------------------------------------|
G---------------------------0-----2--------4-------------------------|
D--------------------------------------------------------------------|
A--------------------------------------------------------------------|
E--------------------------------------------------------------------|
                               Em
Let's face it, we've changed, yeah yeah


Verse chords:
   C5        G5
e------------------------------------------|
B------------------------------------------|
G--5---5-----------------5--5--5-----------| etc.
D--5---5-----5--5--5-----5--5--5----5------|
A--3---3-----5--5--5-----3--3--3----5------|
E---------6--3--3--3--6-----------6-3------|


Repeat intro


Can't stop, lovin you baby
D5            E5
Can't stop it but I'm gonna try

Repeat as above
            
Tabs too difficult? Try these video lessons and learn fast.


comments powered by Disqus
↑ Back to top | Tablatures and chords are parodies/interpretations of the original songs. You may use it for private study, scholarship, research or language learning purposes only