» » »

Brainiac Tabs (ver.2)

Artists:  A B C D E F G H I J K L M N O P Q R S T U V W X Y Z # 

Brainiac Tabs (ver.2)

Chevelle
Rating:
3/5 (2 votes)
Tabs too difficult? Try these video lessons and learn fast.
                                          THis is a song of chevelle, BRAINIAC, i dont know if its 100% 
but just give it a try and be the judge... leave a comment.....

tuning is DROP D.

Intro:x3
 figure out rythym:
e-------------------------------------------------------------------------|
b-------------------------------------------------------------------------|
g-11-11-11-11-11-11-11-11-11-/7-7-7-7-7-7-7-7/6-6-6-6-6-6-6-6-6-6-6-6-6---|
D-xxxxxxxxxxxxxxxxxxxxxxxxxxxxxxxxxxxxxxxxxxxxxxxxxxxxxxxxxxxxxxxxxxxxx---
A-9-9-9-9-9-9-9-9-9-9-9-9-9/5-5-5-5-5-5-5-5/4-4-4-4-4-4-4-4-4-4-4-4-4-4---|
D-------------------------------------------------------------------------|

e-----------------------------------------------|
b-----------------------------------------------|
g-7-7-7-7-7-7-7-7-7-7/6-6-6-6-6-6-6-6-6-6-6-6---|
D-xxxxxxxxxxxxxxxxxxx-xxxxxxxxxxxxxxxxxxxxxxx---
A-5-5-5-5-5-5-5-5-5-5/4-4-4-4-4-4-4-4-4-4-4-4---|
D-----------------------------------------------|
after verse:
e-----------------------------------|
b-----------------------------------|
g-5---5---5---5---5---5---5---5-----|
D-x---x---x---x---x---x---x---x-----|
a-3---3---3---3---3---3---3---3-----|
D-----------------------------------|

chorus:x4
e----------------------------------------------------------------------------|
b----------------------------------------------------------------------------|
g----------------------------------------------------------------------------|
D-9-9-9-9-9999--9-9--7-7-7-7-7-7-12------------------------------------------|
a-9-9-9-9-9999--9-9--7-7-7-7-7-7-12------------------------------------------|
D-9-9-9-9-9999--9-9--7-7-7-7-7-7-12------------------------------------------|
breakdown:
e----------------------------------------------------------------------------|
b----------------------------------------------------------------------------|
g----------------------------------------------------------------------------|
D-10-9---9-7---7-5--5-3---2-2-2-2-2---5-5-5-5-5-5-2-2-2-2-2-2-2--------------|
a-10-9---9-7---7-5--5-3---2-2-2-2-2---5-5-5-5-5-5-5-2-2-2-2-2-2--------------|
D-10-9---9-7---7-5--5-3---2-2-2-2-2---5-5-5-5-5-5-5-2-2-2-2-2-2--------------|
            
Tabs too difficult? Try these video lessons and learn fast.


comments powered by Disqus
↑ Back to top | Tablatures and chords are parodies/interpretations of the original songs. You may use it for private study, scholarship, research or language learning purposes only