» » »

Closure Bass tabs (ver.2)

Artists:  A B C D E F G H I J K L M N O P Q R S T U V W X Y Z # 

Closure Bass tabs (ver.2)

Chevelle
Rating:
0/5 (0 votes)

Tabs too difficult? Try these video lessons and learn fast.
                (00:19 - 00:28)
VERSE 1
D|--------------------------------
A|--------------------------------
E|--------------------------------
B|0--------00-------0-------00----

(00:29 - 00:43)
PRE-CHORUS
D|-------------------------------------
A|-------------------------------------
E|-------------------------------------
B|2-2-4-2-0-2-2-4-2-0-4-4-6-4-0-4-4-6-4      (Repeat until end of pre)

(00:44 - 01:18)
CHORUS
D|-----------------------------------------
A|-----------------------------------------
E|3-2--------------------------------------
B|----4-5-5-5-5-5-5-5-5/3-0-0-0-0-0-0-0-0--   (Repeat till end of chorus, and I
                 know the extra 5's & 0's arent in it, but i use them to fill in)

(01:19 - 01:21)
END CHORUS
D|-------
A|-------
E|-------
B|0-2-0-2

(01:22 - 01:39)
VERSE 2
D|-----------------------------
A|-----------------------------
E|-----------------------------
B|0-------00-------0--------00-

(01:40 - 01:54)
PRE-CHORUS
D|--------------------------------------
A|--------------------------------------
E|--------------------------------------
B|2-2-4-2-0-2-2-4-2-0-4-4-6-4-0-4-4-6-4- (Repeat until end of pre)

(01:55 - 02:29)
CHORUS
D|-----------------------------------------
A|-----------------------------------------
E|3-2--------------------------------------
B|----4-5-5-5-5-5-5-5-5/3-0-0-0-0-0-0-0-0-- (Repeat till end of chorus)

(02:30 - 02:32)
END CHORUS
D|-------
A|-------
E|-------
B|0-2-0-2

(02:33 - 02:50)
VERSE 3
D|--------------------
A|--------------------
E|--------------------
B|1---2---1---3-2-0--- (Repeat until end of verse)

(02:51 - 03:05)
PRE-CHORUS
D|--------------------------------------
A|--------------------------------------
E|--------------------------------------
B|2-2-4-2-0-2-2-4-2-0-4-4-6-4-0-4-4-6-4- (Repeat until end of pre)

(03:06 - 03:22)
CHORUS
D|-----------------------------------------
A|-----------------------------------------
E|3-2--------------------------------------
B|----4-5-5-5-5-5-5-5-5/3-0-0-0-0-0-0-0-0-- (Repeat till end of chorus)

(03:23 - 03:24)
END CHORUS
D|-------
A|-------
E|-------
B|0-2-0-2

(03:25 - 03:40)                            (03:41-03:42)
BRIDGE/CHORUS
D|-----------------------------------------|-------
A|-----------------------------------------|-------
E|3-2--------------------------------------|-------
B|----4-5-5-5-5-5-5-5-5/3-0-0-0-0-0-0-0-0--|0-2-0-2 (Repeat what is before the | until
                                                      end of chorus, then play the 0-2-0-2)

(03:43 - 03:49)
Guitar Solo
D|-------------------
A|-------------------
E|-------------------
B|-------------------

(03:50 - 04:08)
Guitar/Low End Solo
D|-----------------|--------------------------------------------------------
A|-----------------|--------------------------------------------------------
E|-----------------|--------------------------------------------------------
B|2-0-2-0-0-0-0----|8-8-8-8-8-8-8-8/7-7-7-7-7-7-7-7/3-3-3-3-3-3-3/2-2-2-2-2-
(Not 100% sure how many times to pick each string, but you can figure that out,
play whats after the | 4 times, or till the end of the song..)



************************************************************************
*OTHER NOTES:                                                          * 
* -You can play with either a pick or your fingers, but in the video   *
* Pete plays with a pick.                                              *
* -There are a few fills I put in, just for fun, but it sounds good.   * 
* -The actual song is played in either CADG or DADG, but I play it in  *
* BEAD, and thats how I tabbed it. If you don't know how to tune, I    *
* suggest you get a bass tuner.                                        *
* -This tab is not meant to be 100% correct, but I do believe it is    *
* very close. So since it's not perfect don't get mad.                 *
************************************************************************
            
Tabs too difficult? Try these video lessons and learn fast.


comments powered by Disqus
↑ Back to top | Tablatures and chords are parodies/interpretations of the original songs. You may use it for private study, scholarship, research or language learning purposes only